Oops, an error
Loading. Please wait.

Estrella Mía Tab

22 views 1 this week
no commentswrite comment
1 2 3 4 5
3 more votes to show rating
add to favorites
×
Save as Personal and add changes to this tab that will be seen only by you. Learn more ›
×
You can save this tab as Personal to edit and correct it or add notes. All changes will be seen only by you. Learn more »
save as personal
new!
launch autoscroll
font size
0
reset
how to read this tab
guitar tuner
Autoscroll
slow
fast
+/-
esc
set tempo
stop
 acordes usados :
en esta kancion vamos a usar dos D y dos A les apodaremos
1 y 2 para ke se nos aga facil
el D primero es el normal y el segundo es D en 5ª
elprimer la sera en version D solo ke mas adelante
i el 2º sera en kintas
     D1                   A1                  D2
E||--0----------------|---0----------------|-------------------|
B||--3----------------|--10----------------|-------------------|
G||--2----------------|---9----------------|--7----------------|
D||-------------------|---7----------------|--7----------------|
A||-------------------|--------------------|--5----------------|
E||-------------------|--------------------|-------------------|


  F#5                  A2                   D3
-------------------|-------------------|-------------------|
-------------------|-------------------|-------------------|
-------------------|-------------------|--6----------------|
--4----------------|--7----------------|--7----------------|
--4----------------|--7----------------|--5----------------|
--2----------------|--5----------------|-------------------|


  G5
-------------------||
-------------------||
-------------------||
--5----------------||
--5----------------||
--3----------------||
intro  //D1 y A1//

D2                                        F#5        A2
Tu sonrisa me segó, tu mirada me atrapo, eres única estrella
     D2           D3 - A1
mía, estrella mía,
F#5              G5            F#5          G5
Mira mis ojos y no te vallas, no te vallas por favor,
D2          D3       F#5                G5       D2        D3
te vas y no estas, yo pense que serias para mi, te extraño tanto,
F#5       G5
y te veo junto a mi.
//D1 y A1//

F#5                             A5            F#5      G5
Esta historia de amor que para ti acabo para mi no morira,
D2           D3 -A1
estrella mia,
F#5              G5              F#5             G5       D2        D3
Mira mis ojos y no te vallas, no te vallas por favor, te vas y no estas,
F#5                      G5      D2      D3
yo pensé que serias para mi, te extraño tanto,
F#5           G5
te veo junto a mi.

     E    E  E  E  E    E  E  E     E  E   E   E   E    E   E
E||------------------------------|------------------------------|
B||--7s--10--9-----7s--10--9-----|--------10--12--13b--12--13b--|
G||-------------9-------------9--|--7--6------------------------|
D||------------------------------|------------------------------|
A||------------------------------|------------------------------|
E||------------------------------|------------------------------|

F#5                                         A5
Esta historia de amor que para ti ya acabo para mi no morirá
Esta historia de amor que para ti ya acabo para mi no morirá

aki es solo jugar kon D2 y D3
nunca, te dejare, prometo, nunca olvidarme de ti..

te vas y no estas, yo pense que serias para mi, te extraño tanto,
te veo junto a mi,

te vas y no estas, yo pense que serias para mi, te extraño tanto,
te veo junto a mi,


aki esta miprimera trancripsion
espero ser de bendicion para usteds
mi correo para cualquier peticion
insolito14@
me pueden buscar en el fb tambn ^^
bendiciones......xD....
Suggest correction
Give kudos to tab author, rate the tab!
1 2 3 4 5
comments
print report bad tab
guest
Wanna post a correction for this tab? Suggest correction