Oops, an error
Loading. Please wait.

Sólo Tú Tab

version 1
version 1

Whole song

7 views 1 this week
no commentswrite comment
1 2 3 4 5
3 more votes to show rating
add to favorites
launch autoscroll
font size
0
reset
how to read this tab
guitar tuner
Autoscroll
slow
fast
+/-
esc
set tempo
stop
Help us to improve Ultimate-Guitar.com Take our survey!
×
Aquí les envio los tabs del punteo de la rola de MakerPB ?Solo Tu?,
espero y les sirva, Dios les bendiga, recuerden que la musica es y
debe ser para gloria de Dios siempre. Si tienen dudas escriban a mi
correo. (angelin_050@

(Ambas ejecuciones de guitarra se repiten dos veces al mismo tiempo
 y ejecutan el circulo de tonos: D, Bm, Em, A

(Ejecución de guitarra #1) (Punteo Simple Alternado)

e -------------------------------------------------------
B -------------------------------------------------------
G -------------------------------------------------------
D -------------------------------------------------------
A -----5-5-5-5---5-5-5-5-------9-9-9-9---9-9-9-9---------
E -----------------------------7-7-7-7---7-7-7-7---------

e -------------------------------------------------------
B -------------------------------------------------------
G -------------------------------------------------------
D -------------------------------------------------------
A -----7-7-7-7---7-7-7-7------7-7-7-7---7-7-7-7----------
E ----------------------------5-5-5-5---5-5-5-5----------

(Ejecución de guitarra #2) (Punto combinado alternado)

e -------------------------------------------------------
B -------------------------------------------------------
G ---------6----------------6----------------------------
D -----7-----7---7------7-----7---7----------------------
A -5-5---5-----5----5-5---5-----5------------------------
E -------------------------------------------------------

e -------------------------------------------------------
B -------------------------------------------------------
G -------------------------------------------------------
D ---------7----------------7----------------------------
A -----5-----5---5------5-----5--------------------------
E -7-7---7-----7----7-7---7-----7------------------------

e -------------------------------------------------------
B -------------------------------------------------------
G ---------7---------------7-----------------------------
D -----5-----5---5-----5-----5---5-----------------------
A -7-7---7------7--7-7---7-----7-------------------------
E -------------------------------------------------------


e -------------------------------------------------------
B -------------------------------------------------------
G -------------------------------------------------------
D ---------5----------------5----------------------------
A -----7-----7---7------7----7---------------------------
E -5-5---5-----5----5-5---5---5--------------------------


(Punteo antes del Puente final, tonos: D, B)
(Punteo alterno con velocidad)

  (Tab x3)
e -------------------------------------------------------
B -------------------------------------------------------
G -------------------------------------------------------
D -------------------------------------------------------
A -5-5-5-5---5-5-5-5---9-9-9-9---------------------------
E ---------------------7-7-7-7---------------------------

e -------------------------------------------------------
B -------------------------------------------------------
G -------------------------------------------------------
D -------------------------------------------------------
A -5-5-5-5---5-5-5-5---9-9-9----7-7-7---5----------------
E ---------------------7-7-7----5-5-5---3----------------
Suggest correction
Give kudos to tab author, rate the tab!
1 2 3 4 5
comments
print report bad tab
guest
You may want to rate the tab now too:
select rating
Wanna post a correction for this tab? Suggest correction