Oops, an error
Loading. Please wait.

Bar Extraño Chords

19 views 1 this week
no commentswrite comment
1 2 3 4 5
3 more votes to show rating
add to favorites
×
Save as Personal and add changes to this tab that will be seen only by you. Learn more ›
×
You can save this tab as Personal to edit and correct it or add notes. All changes will be seen only by you. Learn more »
save as personal
new!
launch autoscroll
font size
0
reset
transpose
0
reset
display chords
guitar tuner
Autoscroll
slow
fast
+/-
esc
set tempo
stop
Strumming
There is no strumming pattern for this song yet. and get +5 IQ
Le agregue el solo y corregi el inicio del intro,solo variaciones de
tonos menores.
creo que quedo bien!!!


Intro:
E,F#m,A,E
E,F#m,A,C#m
|-------------------------------------------------------------7----
|---------------------------------------------5---5---5~--7^---9~^-
|---4-6-4------------------------------4-6-4-6-6-4-6-4-------------
|4/6-6---6-4-2-6-4-2--2~--2---4/6~---6--6--------------------------
|--------------------4---4-4-2-------------------------------------
|------------------------------------------------------------------


F#m                 E
Jamás estuve tan lejos de la ciudad
F#m                    E
de todas formas es mejor no regresar
C#m       A          E
asuntos que acabaron mal
C#m       A          E
y la traición a flor de piel

F#m                    E
Me equivoque pensando que este era el final (riff)
F#m                  E
de una vida que aun daba para más
C#m       A          E
números que no terminaban de cerrar
C#m       A          E
olor a pólvora de ayer
________________________________________

      B            A                    E
Y me marché lo mas lejos que yo pude imaginar
      B            A                    E
y más allá iré perdiendo la memoria hasta llegar
      B            A                    E
algún lugar y comenzar, y comenzar
_________________________________________
                           1
|-/11h12------14-----16--14-------14-----16--17--16--|
|-/11----11/12--12/14--12----11/12--12/14--14--14----|
|----------------------------------------------------|
|----------------------------------------------------|
|----------------------------------------------------|
|----------------------------------------------------|

     2*        3
|------17-|---------
|-12/14---|--14h12~^
|---------|---------
|---------|---------
|---------|---------
|---------|---------


Solo(x2)

(*)se repite 4 veces antes de pasar al 3


SOLO BASE:

E-F#m-A-E
E-F#m-A-C#m

_________________________________________

F#m                 E
El tiempo pasa y molesta recordar
F#m                 E
a veces creo que no me gusta pensar
C#m       A          E
no encuentro cierto analizar
C#m       A          E
si estuvo bien o estuvo mal
F#m                 E
Un bar extraño que nadie quiso pisar (riff)
F#m                 E
un trago amargo que nadie quiso tomar
C#m       A          E
la ruta sigue hasta el final
C#m       A          E
es a donde quiero llegar
___________________________________________

      B            A                    E
Y me marché lo mas lejos que yo pude imaginar
      B            A                    E
y más allá iré perdiendo la memoria hasta llegar
      B            A                    E
algún lugar y comenzar, y comenzar


riff

D|----2h4/6/4~-------
A|-2h4----------

/ (slide)
^ (bend)
~ (dejar sonando)

----------------------------------------------------------------------

agradecimiento a daniel k es un genio!!aguante malmo carajo!!
cualquier este es mi mail ariel_nieto119@
Suggest correction
Give kudos to tab author, rate the tab!
1 2 3 4 5
comments
print report bad tab
guest
Wanna post a correction for this tab? Suggest correction