Oops, an error
Loading. Please wait.

Bar Extraño Tab

58 views 1 this week
no commentswrite comment
1 2 3 4 5
3 more votes to show rating
add to favorites
×
Save as Personal and add changes to this tab that will be seen only by you. Learn more ›
×
You can save this tab as Personal to edit and correct it or add notes. All changes will be seen only by you. Learn more »
save as personal
new!
launch autoscroll
font size
0
reset
how to read this tab
guitar tuner
Autoscroll
slow
fast
+/-
esc
set tempo
stop
Intro:
[ch]E,[ch]F#m,LA[/ch],MI[/ch]
[ch]E,[ch]F#m[/ch],LA[/ch],[ch]C#m[/ch]
|------------------------------------------------------------------
|------------------------------------------------------------------
|---------6--------------------------------------------------------
|4s6--9-6---9-6-----6-----------------4s6--------------------------
|---------------9-7---9-7---7---7----------------------------------
|-------------------------9---9---9-7------------------------------

|----------------------------------7-------------------------------
|------------------------------7b8---7b8-----------------------------
|---------6---6-9-6---9-6---9--------------------------------------
|4s6--9-6---9-------9-----9----------------------------------------
|------------------------------------------------------------------
|------------------------------------------------------------------


[ch]F#m[/ch]                 [ch]E[/ch]
Jamás estuve tan lejos de la ciudad
[ch]F#m[/ch]                    [ch]E[/ch]
de todas formas es mejor no regresar
[ch]C#m       [ch]A[/ch]          MI[/ch]
asuntos que acabaron mal
[ch]C#m       [ch]A[/ch]          MI[/ch]
y la traición a flor de piel

[ch]F#m[/ch]                    [ch]E[/ch]
Me equivoque pensando que este era el final (riff)
[ch]F#m[/ch]                  [ch]E[/ch]
de una vida que aun daba para más
[ch]C#m       [ch]A[/ch]          MI[/ch]
números que no terminaban de cerrar
[ch]C#m       [ch]A[/ch]          MI[/ch]
olor a pólvora de ayer
________________________________________

      [ch]B[/ch]            [ch]A[/ch]                    [ch]E[/ch]
Y me marché lo mas lejos que yo pude imaginar
      [ch]B[/ch]            [ch]A[/ch]                    [ch]E[/ch]
y más allá iré perdiendo la memoria hasta llegar
      [ch]B[/ch]            [ch]A[/ch]                    [ch]E[/ch]
algún lugar y comenzar, y comenzar
_________________________________________

|----------------------------------------------------|
|----17-19-21-20-----20-22-21----------17------------|
|-14s16s18s20s19--18s19s21s20----16h18---x4--16------|
|----------------------------------------------------|
|----------------------------------------------------|
|----------------------------------------------------|


SOLO BASE:

[ch]E-[ch]F#m-LA[/ch]-MI[/ch]
[ch]E-[ch]F#m[/ch]-LA[/ch]-[ch]C#m[/ch]

_________________________________________

[ch]F#m[/ch]                 [ch]E[/ch]
El tiempo pasa y molesta recordar
[ch]F#m[/ch]                 [ch]E[/ch]
a veces creo que no me gusta pensar
[ch]C#m       [ch]A[/ch]          MI[/ch]
no encuentro cierto analizar
[ch]C#m       [ch]A[/ch]          MI[/ch]
si estuvo bien o estuvo mal
[ch]F#m[/ch]                 [ch]E[/ch]
Un bar extraño que nadie quiso pisar (riff)
[ch]F#m[/ch]                 [ch]E[/ch]
un trago amargo que nadie quiso tomar
[ch]C#m       [ch]A[/ch]          MI[/ch]
la ruta sigue hasta el final
[ch]C#m       [ch]A[/ch]          MI[/ch]
es a donde quiero llegar
___________________________________________

      [ch]B[/ch]            [ch]A[/ch]                    [ch]E[/ch]
Y me marché lo mas lejos que yo pude imaginar
      [ch]B[/ch]            [ch]A[/ch]                    [ch]E[/ch]
y más allá iré perdiendo la memoria hasta llegar
      [ch]B[/ch]            [ch]A[/ch]                    [ch]E[/ch]
algún lugar y comenzar, y comenzar
Suggest correction
Give kudos to tab author, rate the tab!
1 2 3 4 5
comments
print report bad tab
guest
Wanna post a correction for this tab? Suggest correction