Oops, an error
Loading. Please wait.

El Amor No Es Para Mí bass

55 views 1 this week
no commentswrite comment
1 2 3 4 5
3 more votes to show rating
add to favorites
×
Save as Personal and add changes to this tab that will be seen only by you. Learn more ›
×
You can save this tab as Personal to edit and correct it or add notes. All changes will be seen only by you. Learn more »
launch autoscroll
font size
0
reset
guitar tuner
edit
Autoscroll
slow
fast
+/-
esc
set tempo
stop
CUANDO RECIÉN COMIENZA HACE:

G---------------------------------------
D---------------------------------------
A---------------------------------------
E----5--5--5--5--5--5--5----------------

VERSO:

G----------------------------------------
D---------------4--4---7---4-------------
A--5--5--5--5----------------------------
E----------------------------------------     x2

G----------------------------------------
D---------------0--0---2---0-------------
A--2--2--2--2----------------------------
E----------------------------------------  x2

G----------------------------------------
D----------------------------------------
A---------------2--2---5---2-------------
E--3--3--3--3----------------------------  x2

G----------------------------------------
D----------------------------------------
A----------------------------------------
E--5--5--5--5--5--5----------------------

ESTRIBILLO:

G----------------------------------------
D----------------------------------------
A--5--5--5--5---5--5--5--5---------------
E----------------------------------------

G----------------------------------------
D----------------------------------------
A--------------2--2---2------------------
E--5--5--5--5-----------5-2-5-2----------

Y A LO ÚLTIMO HACE:

'EL AMOR NO ES PARA MÍ'
G----------------------------------------
D----------------------------------------
A----------------------------------------
E--5--5--5--5--5--5--5--5----------------

SOLO:

G----------------------------------------
D--------------4--4--7--4----------------
A--5--5--5--5----------------------------
E----------------------------------------   

G----------------------------------------
D----------------------------------------
A--------------4--4--7--4----------------
E--5--5--5--5----------------------------   x2

G----------------------------------------
D--------------4--4--7--4----------------
A--5--5--5--5----------------------------
E----------------------------------------

Y DESPUÉS:

G----------------------------------------
D----------------------------------------
A----------------------------------------
E--5--5--5--5--5--5--5------------------


ESPERO QUE DISFRUTN TOCANDO UNA DE LAS MEJORES 
CANCIONES DE MAL MOMENTO, AÚN SABIENDO QUE SILVIO
RODRÍGUEZ ES MEJOR.

                   ''''''''''''''
                    LA HONA LOCA
                   ''''''''''''''

            
            
Suggest correction
Creating personal tab
Creating personal tab
You can edit any tab online and save it as your Personal.

You can edit, replace or remove any tab part or add personal notes – all changes will be seen only by you.

Personal tabs can be accessed anytime from any device, even offline.
Learn more »
Give kudos to tab author, rate the tab!
1 2 3 4 5
comments
print report bad tab
guest
Wanna post a correction for this tab? Suggest correction