Oops, an error
Loading. Please wait.

El Amor No Es Para Mí Tab

33 views 1 this week
no commentswrite comment
1 2 3 4 5
3 more votes to show rating
add to favorites
launch autoscroll
font size
0
reset
how to read this tab
guitar tuner
×
Best way to learn
"El Amor No Es Para Mí"
Autoscroll
slow
fast
+/-
esc
set tempo
stop
Intro:A
                 D
En una noche de verano
                 Bm
Te besaba en mi bacón
                 G
En una noche de verano
                 A
Me robaste el corazón

                 D
Te tome por la cintura
                Bm
La pasión me enloqueció
                  G
Bajo la luz de la luna
                A
Me robaste el corazón

G
Y ahora q veo bien todo
D                   Bm *
Siempre te tengo q herir
G
Y ahora q veo bien todo
D                 Bm  *
Te estoy dejando partir
G
Y ahora q veo bien todo
A
El amor no es para mí

* Acá la guitarra hace esto
E-|----------------------------|
B-|-------------10-------------|
G-|-----7-9b(11)--9b(11)-9-----|
D-|-7h9--------------------9~--|
A-|----------------------------|
e-|----------------------------|

SOLO
E-|--------------------------------------------|
B-|---5-7~--7-7-5---5~------5-5~--7-7-7-5------|
G-|--7------------7-------7---------------7-7~-| hace esto
D-|-7--------------------7---------------------| dos veces
A-|--------------------------------------------| y termina
e-|--------------------------------------------| en A

                D
En una noche de verano
                Bm
Solitario en mi bacón
                G
Yo veo pasa el tiempo
                A
Y tu voz q dice adiós

                      D
Mal momento en los parlantes
                   Bm
Te guarde en mi corazón
                   G
La balada de esa noche
                   A
Cuando perdí la razón

G
Y ahora q veo bien todo
D                   Bm  *
Siempre te tengo q herir
G
Y ahora q veo bien todo
D                 Bm  *
Te estoy dejando partir
G
Y ahora q veo bien todo
A                         D
El amor... no es para mí

AGUANTE EL PUNK ROCK!
LUIS_DAMMIT
Suggest correction
Give kudos to tab author, rate the tab!
1 2 3 4 5
comments
print report bad tab
guest
You may want to rate the tab now too:
select rating
Wanna post a correction for this tab? Suggest correction