Oops, an error
Loading. Please wait.

Mas Tiran Dos Cervezas Tab

25 views 1 this week
no commentswrite comment
1 2 3 4 5
3 more votes to show rating
add to favorites
launch autoscroll
font size
0
reset
how to read this tab
guitar tuner
×
Best way to learn
"Mas Tiran Dos Cervezas"
Autoscroll
slow
fast
+/-
esc
set tempo
stop
ya era hora de ke apareciera algun grupo asturiano por aki
asi ke me decidi a poner esta cancion ke esta muy guapa..
a ver ke os parece...

-Estrofa: C#  G#  F  F#
-Estrebillo: C#  G#  F  F#  G#
-Letra:
  
       Hoy he volvido a caer
       no lo puedo remediar
       he visto un bar
       tuve que entrar.

       Que fatalidad
       me volvi a pegar
       bebiendo mas y mas
       tenia que acabar

  Estri:Mas tiran dos cervezas que dos carretas
        mas tiran dos cervezas que dos carretas.

       Lo intento dejar
       cada dia mas y mas
       pero que mas da 
       ella puede mas

       Este amor me va a matar
       esta tia es fatal
       si no fuera rubia 
       me la beberia igual.
      
       Mas tiran dos...

       Me hace reir
       me lleva a bailar
       pero que mas da 
       ella puede mas.(bis)
-Solo:
    1)---------------------|----------------------------||
    2)---------------------|----------------------------||
    3)---------------------|----------------------------||(bis)
    4)-6-6---6^6^6-4^3-----|-----4^6--4^3-3---3---4---6-||
    5)-----------------4^6-|-4^6------------------------||
    6)---------------------|----------------------------||

    
    1)-0---3-1-0---3-1-0---3-1-0---3-1-0---3-1-0---3-1-0--|-3-1-0------||
    2)-----------1-------1-------1-------1-------1-------3|-------3-1--||

    
    1)-3-1-0---3-1-0---3-1-0---3-1-0---3-1-1---3-1-0-----------|
    2)-------1-------1-------1-------1-------1-------3/4/5/6/7-|


    1)-3-1-0---3-1-0---3-1-0---3-1-0---3-1-0---3-1-0---|
    2)-------1-------1-------1-------1-------1-------3-|

-ESTRUCTURA:  estrofa-estrofa-estribillo-estrofa-estrofa-estribillo-
              estrofa(en parada)-solo-estribillo(x2).


escucharla y ya vereis como os sale, si no conoceis a este grupo
buscarlo por las tiendas porque son de lo mejor del rock,
este tema se lo quiero dedicar a la peña de los veranos
 Borjita,Dani,Parry,'los quintos'...
Suggest correction
Give kudos to tab author, rate the tab!
1 2 3 4 5
comments
print report bad tab
guest
You may want to rate the tab now too:
select rating
Wanna post a correction for this tab? Suggest correction