Oops, an error
Loading. Please wait.

Por La Espalda Tab

1 view 1 this week
no commentswrite comment
1 2 3 4 5
3 more votes to show rating
add to favorites
launch autoscroll
font size
0
reset
how to read this tab
guitar tuner
Autoscroll
slow
fast
+/-
esc
set tempo
stop
Help us to improve Ultimate-Guitar.com Take our survey!
×
@Tab by Cerebros


Aquí va el tabulado de la canción que más me gusta de este CD.
Tanto la música como la letra se salen. Os recomiedo oir mucho
la canción para poder coger todos los cambios correctamente y
sobre todo darle mucha caña k es facilita!!!

La parte del solo no es exactamente lo que suena en la canción
pero con lo puesto a mi ya me sonaba bien.

Al lio!


INTRO
-----

        Se repite 3 veces                    La cuarta vez así
        PM PM             PM PM                  PM PM
e|--------------------------------------|------------------------|
B|--------------------------------------|------------------------|
G|--------------------------------------|------------------------|
D|-2----2--2---------2----2--2----------|----2----2--2--------2--|
A|-2----2--2---------2----2--2--3p2-----|----2----2--2--------2--|
E|-0----0--0--2h3p2--0----0--0------3~--|----0----0--0--2h3p2-0--|


ESTROFA 1
---------

G         C      D E D E
Por la espalda!
G         C      D E D E
Por la espalda!
G         C      D E D E
Por la espalda!
G         C
Por la espalda!  Apuntas y disparas!

ESTROFA 2
---------

E                       G
Escondiendo las miradas, ocultándose en tu cara

E                       G
Las palabras atrapadas por el miedo en la nada

C
Puro cuento lo que cuentas, el vacío no acompaña

B
Presionando tu cerebro te es más fácil hablar


ESTRIBILLO
----------
G         C      D E D E
Por la espalda!  se escupen las palabras
G         C      D E D E
Por la espalda!  el cobarde nunca calla
G         C      D E D E
Por la espalda!  sangran más las puñaladas
G         C
Por la espalda!  Apuntas y disparas!

PUENTE (x2) (Igual que la intro)
------
        PM PM              PM PM
e|--------------------------------------|
B|--------------------------------------|
G|--------------------------------------|
D|-2----2--2---------2----2--2----------|
A|-2----2--2---------2----2--2--3p2-----|
E|-0----0--0--2h3p2--0----0--0------3~--|


ESTROFA 2
---------
E
Hablar cuando no hay nada que decir

G
Cerrar la boca imposible para ti

E
Acusar y esconder la mano

G
Es el juego preferido del sonido de un disparo

C
Puro cuento lo que cuentas, el vacío no acompaña

B
Presionando tu cerebro te es más fácil hablar

ESTRIBILLO
----------
G         C      D E D E
Por la espalda!  se escupen las palabras
G         C      D E D E
Por la espalda!  el cobarde nunca calla
G         C      D E D E
Por la espalda!  sangran más las puñaladas
G         C
Por la espalda!  Apuntas y disparas!


SOLO
----
    E                             G
e|-----------------------------------------------------------------------
B|--10/12-12-12---10/12-12-12---10/12-12-12---10/12-12-10----------------
G|--------------------------------------------------------12-11-12-11-9--
D|-----------------------------------------------------------------------
A|-----------------------------------------------------------------------
E|-----------------------------------------------------------------------

    E                             G
e|------------------------------------------------------------------------
B|10/12-12-12---10/12-12-12---10/12-12-12---10/12-12-10---------------9-9-
G|------------------------------------------------------12-11-12-11-9-9-9-
D|------------------------------------------------------------------------
A|------------------------------------------------------------------------
E|------------------------------------------------------------------------

    C                             B
e|------------------------------------------------------------------------
B|12---12-10----12---12-10--------------10h12(x4)-12h13(x4)--13h15(x4)--17
G|-----------12------------12-11h12(x4)-----------------------------------
D|------------------------------------------------------------------------
A|------------------------------------------------------------------------
E|------------------------------------------------------------------------


ESTRIBILLO (x2)
---------------
G         C      D E D E
Por la espalda!  se escupen las palabras
G         C      D E D E
Por la espalda!  el cobarde nunca calla
G         C      D E D E
Por la espalda!  sangran más las puñaladas
G         C
Por la espalda!  Apuntas y disparas!
Suggest correction
Give kudos to tab author, rate the tab!
1 2 3 4 5
comments
print report bad tab
guest
You may want to rate the tab now too:
select rating
Wanna post a correction for this tab? Suggest correction