Oops, an error
Loading. Please wait.

Un Soñador Chords

10 views 3 this week
no commentswrite comment
1 2 3 4 5
3 more votes to show rating
add to favorites
launch autoscroll
font size
0
reset
transpose
0
reset
simplify chords
display chords
guitar tuner
×
Best way to learn
"Un Soñador"
Autoscroll
slow
fast
+/-
esc
set tempo
stop
Riff 1
e-------0-----------0-----------0-------------------
B-----0---0-------0---0-------0---0---------4-------
G-----------------------------------------4---4-----
D---3-------3---------------------------------------
A--------------3--------3---0-------0---2-------2---
E---------------------------------------------------


Riff 2
e-------0-----------0-----------0-------------------
B-----0---0-------0---0-------0---0---------4-------
G-----------------------------------------4---4-----
D---3-------3---------------------------------------
A--------------3--------3---0-------0---------------
E---------------------------------------0-----------


            Riff1
Mira a ver que es lo que se te escapa y
  E5      C5      A5      B5      E5
talvez al verlo bajes la cabeza tambièn
            Riff1
que se yo de querras de paz y de amor
E5      C5      A5      B5      C5
que no sepa cualquiera que corte una flor
   C5       G5      D5
Y al pasar, paso por tu lado
   C5       G5      D5
me envuelve el aroma de tu corazón
   C5       G5      D5                C5
no es verdad que al final de la lista esté yo
  C5        D5                  E5
sólo soy un soñador, sólo soy un soñador


Y a está bien que la vida es muy larga
pasan despacio las horas amargas
se muy bien que las penas se pasan
y a veces no siento na de na

Y al pasar paso por tu lado
me envuelve el aroma de tu corazón
no es verdad que al final de la lista esté yo
sólo soy un soñador, sólo soy un soñador


  E5             C5
Que va caminando despacio y deprisa
   A5                     B5
que ahoga sus penas en lo que haga falta,
  E5              C5
que sale denoche pa espantar la luz
  A5                 B5
y el miedo no le hace na de na


C5... D5.... D#5 E5
Suggest correction
Give kudos to tab author, rate the tab!
1 2 3 4 5
comments
print report bad tab
guest
You may want to rate the tab now too:
select rating
Wanna post a correction for this tab? Suggest correction