Oops, an error
Loading. Please wait.

Déjame Llegar Tab

version 1
version 1

Whole song

Interactive

57 views 1 this week
no commentswrite comment
1 2 3 4 5
3 more votes to show rating
add to favorites
launch autoscroll
font size
0
reset
how to read this tab
guitar tuner
×
Best way to learn
"Déjame Llegar"
Autoscroll
slow
fast
+/-
esc
set tempo
stop
G          Bm
Ven, siéntate mujer
G              Bm
Que?no quieres un café?
C            Em D           G
Que tenemos mucho que hablar

G
Por ahí yo me he enterado
Bm
Que él no era lo esperado
C                  Em     D
y que te ha hecho hasta llorar

G
Cuantas flores te ha mandado
Bm                          C
Cuantas veces te ha tocado él
         Em  D
Pensando sólo en?


Coro:
G         D             C
Déjame llegar, quiero decirte,
Em  D       G              D
Que bien te ves conmigo tú
       C      Em D    G
No necesito, nada más


G
Otras veces lo he intentado
Bm
Y alguien más está a tu lado
   C            Em    D
Y tú fingiendo ser feliz

G
Ya no importara el pasado
Bm                              C
Cuanto tiempo te he esperado aquí
          Em  D
Pensando solo en?

coro

Solo:
e------------------10-10-10-10h12-10h12-------------------------------
B-8-8-8-8-10-12/13----------------------8-8-8-5-8/10-12-12p10---------
G-------------------------------------------------------------12h14-9-
D---------------------------------------------------------------------
A---------------------------------------------------------------------
E---------------------------------------------------------------------

e-12-12-12-10-10-10-8--8--8--7--10-10-10-8--8--8--7-7-7--------------
B-13-13-13-12-12-12-10-10-10-8--12-12-12-10-10-10-8-8-8-7-8----------
G--------------------------------------------------------------------
D--------------------------------------------------------------------
A--------------------------------------------------------------------
E--------------------------------------------------------------------

Coro

Quiero dedicar este tab una persona muy especial: Ana Gabriela Chinchilla
Te quiero mucho, -peli-
Suggest correction
Give kudos to tab author, rate the tab!
1 2 3 4 5
comments
print report bad tab
guest
You may want to rate the tab now too:
select rating
Wanna post a correction for this tab? Suggest correction