Oops, an error
Loading. Please wait.

Déjame Llegar Tab

version 2
version 2

Whole song

Interactive

13 views 1 this week
no commentswrite comment
1 2 3 4 5
3 more votes to show rating
add to favorites
launch autoscroll
font size
0
reset
how to read this tab
guitar tuner
×
Best way to learn
"Déjame Llegar"
Autoscroll
slow
fast
+/-
esc
set tempo
stop
Esta es la version correcta del solo de esta rola, o
por lo menos asi suena mejor!!!

e||-----------------------------------------||
B||-8-8-8-8---8-10-10/12-12-12--12-12/15\---||
G||---------9-------------------------------||
D||-----------------------------------------||
A||-----------------------------------------||
E||-----------------------------------------||

e||-----------------------------------------||
B||-8-8-8-8---8-10-10/12-12--13-12-8-8h10-8-||
G||---------9-------------------------------||
D||-----------------------------------------||
A||-----------------------------------------||
E||-----------------------------------------||

e||-12-12-12-10-10-10-8--8--7-7--||
B||-13-13-13-12-12-12-10-10-8-8--||
G||------------------------------||
D||------------------------------||
A||------------------------------||
E||------------------------------||

e||-10-10-10-8--8--8--7-7-7-8--7-||
B||-12-12-12-10-10-10-8-8-8-10-8-||
G||------------------------------||
D||------------------------------||
A||------------------------------||
E||------------------------------||

Si hay algun error o tienen algun comentario o duda
escribanme al mail...
Suggest correction
Give kudos to tab author, rate the tab!
1 2 3 4 5
comments
print report bad tab
guest
You may want to rate the tab now too:
select rating
Wanna post a correction for this tab? Suggest correction