Oops, an error
Loading. Please wait.

Déjame Llegar Bass Tab

version 1
version 1

Whole song

Interactive

29 views 1 this week
no commentswrite comment
1 2 3 4 5
3 more votes to show rating
add to favorites
launch autoscroll
font size
0
reset
guitar tuner
×
Best way to learn
"Déjame Llegar"
Autoscroll
slow
fast
+/-
esc
set tempo
stop
Intro

G          Sim
Ven siéntate mujer
G          Sim
que no quieres un café
C            Em7    D     G
que tenemos mucho que hablar


g -----------------------------
d -----------------------------
a -----------------------------
e---3-33--33-330--3-33-33-330?

Por ahi yo me he enterado,  que el no era lo esperado, y que
a -------------------- -----2---22---22----222--------3-33-33-333-
e-3-----33-----33----330------------------------------------------

Te ha hecho hasta llorar
g -------------------------
d ----9----------7---------
a -7-----7---5-------5-----
e--------------------------

Cuantas flores te ha mandado, cuantas veces te tocado,     ellllll
a --------------------------- 2---22-----22-------222-----3-33-33-333-
e-3--------33-----33----330-------------------------------------------

Pensando solo (pensando solo) en...
g -------------------------
d ----9----------7---------
a -7-----7---5-------5-----
e--------------------------

En esta parte deben llevar el ritmo de la cancion para que suene bien

de-ja-me- llegar
g ------------------------------------------
d ---------5---------------7---------5------
a -----5-------5------5----------5----------
e--3---------------3----------3-------------

Quiero decirte
g -----------------------------
d -------7---------7-----------
a ----7---------7--------------
e--5---------5-----------------

Que bien te vez
g ------9------------7-------
d ----9----------7-----------
a -7---------5---------------
e----------------------------
Suggest correction
Give kudos to tab author, rate the tab!
1 2 3 4 5
comments
print report bad tab
guest
You may want to rate the tab now too:
select rating
Wanna post a correction for this tab? Suggest correction