Oops, an error
Loading. Please wait.

Despues De Tí Chords

10 views 1 this week
no commentswrite comment
1 2 3 4 5
3 more votes to show rating
add to favorites
launch autoscroll
font size
0
reset
transpose
0
reset
simplify chords
display chords
guitar tuner
Autoscroll
slow
fast
+/-
esc
set tempo
stop
Help us to improve Ultimate-Guitar.com Take our survey!
×
Intro  D - Em7 - A - D

   D                 Em7                      A                D
-----2----------2-------3--------7--------7------------5-------2(X5)3-0
-------3----------3--------3 -------8-------------5------------3----3-3
0/2--------0/2--------------------- ----------6------6----6----2----2-2
----------------------2---- --9--------9--------7-----------7--------
---------------------------------- -----------------------------------
---------------------------------- -----------------------------------
(*)
D                            Em7
 Despues de la tormenta, la calma reinara.....
A                         D                 Riff
 Despues de cada dia, la noche llegara....

(**)
Bm                                  F#m
  Despues de un dia de lluvia, el sol se asomara....
Em                            A
  Despues de ti que, despues de ti que...

(*)
Despues de cada instante, el mundo girara....
Despues de cada anio, mas tiempo se nos va......

(**)
Despues de un buen amigo, otro amigo encontrasas...
Y despues de ti que, despues de ti que...


CORO
D                    A         Bm            F#m
Despues de ti no hay nada, ni sol ni madrugadas....
Em                             G            A
  Ni lluvias ni tormentas, ni amigos ni esperanzas....

Despues de ti no hay nada, mi vida llena el alma....
Ni paz que le consuele, no hay nada si tu faltas...

(*)
Despues de haber tenido, siempre vuelves a tener....
Despues de haber querido, lo intentas otra vez....

(**)
Despues de lo vivido, siempre hay un despues...
Despues de ti que, despues de ti que....

CORO (x2)

Riff
   D               C#               Bm
-------------------------------------2--
---7----------7----5---------5-------3--
----------7---------------6----------4--
------7----------------6-------------4--
---5---------------4-----------------2--
---------------------------------------

Em7: 022033 o 779787
Suggest correction
Give kudos to tab author, rate the tab!
1 2 3 4 5
comments
print report bad tab
guest
You may want to rate the tab now too:
select rating
Wanna post a correction for this tab? Suggest correction