Oops, an error
Loading. Please wait.

No Podíamos Ser Agua? Tab

218 views 1 this week
no commentswrite comment
1 2 3 4 5
3 more votes to show rating
add to favorites
×
Save as Personal and add changes to this tab that will be seen only by you. Learn more ›
×
You can save this tab as Personal to edit and correct it or add notes. All changes will be seen only by you. Learn more »
save as personal
new!
launch autoscroll
font size
0
reset
how to read this tab
guitar tuner
Autoscroll
slow
fast
+/-
esc
set tempo
stop
Este es el solo de guitarra. Espero os guste

Maldita Nerea - ¿No podíamos ser agua?

Solo

Acordes del solo: F G Am G F Dm G - F G Am Em F G D


E ---------------7---8\7-----5-----------3--------------7----------------
B ----------5-----------8-5----5-----------3--------8-----8--------------
G ------------7------------------7-5-4-5---------0----7------------------
D ---7-7-7-----------------------------------0-2-------------------------
A -----------------------------------------------------------------------
E -----------------------------------------------------------------------


E -------------7-8\7---10p7---8------------------------------------------
B ---------5---------8------8-----8---8-----8---8------10----10----------
G -----------7------------------9---9---9-7---7---9/11----11----11-11----
D ---7-7-7---------------------------------------------------------------
A -----------------------------------------------------------------------
E -----------------------------------------------------------------------


Un saludo a todos
Suggest correction
Give kudos to tab author, rate the tab!
1 2 3 4 5
comments
print report bad tab
guest
Wanna post a correction for this tab? Suggest correction