Oops, an error
Loading. Please wait.

No Preguntes Que Pasó Tab

7 views 1 this week
no commentswrite comment
1 2 3 4 5
3 more votes to show rating
add to favorites
launch autoscroll
font size
0
reset
how to read this tab
guitar tuner
Autoscroll
slow
fast
+/-
esc
set tempo
stop
Help us to improve Ultimate-Guitar.com Take our survey!
×
 RIFF 1

 E|------------------------------------------------------
 B|------------------------------------------------------
 G|--2-----2-----------2--------2~~~~--------------------
 D|--2-----2-5-4-2-----2-----2---------------------------
 A|--0-3h4---------3~~-0-3h4-----------------------------
 E|------------------------------------------------------

 RIFF 2

 E|--5---------------------------------------------------
 B|----8-5-----------------------------------------------
 G|--------8---8-7-5---5---------------------------------
 D|------------------7---7~-5-6-7~~----------------------
 A|------------------------------------------------------
 E|------------------------------------------------------


INTRO: RIFF 1  [ch]E5[/ch]


               [ch]A5[/ch]
Simplemente marchó y se fué
  [ch]C#5                             RE5[/ch]
dejando rastros y un después, para ver
                     [ch]B5[/ch]        [ch]E5[/ch]
que esas noches no están por volver
                  [ch]A5[/ch]
Respondiendo al dolor
                   [ch]C#5          SI5[/ch]
con ganas y con el corazón, supo ver
                  [ch]E5        MI7[/ch]
que esas noches no iban a volver

               [ch]D5[/ch]
Y no preguntes que pasó
    [ch]A5[/ch]                            [ch]E5[/ch]
son mil respuestas sin razón, supo ver
                             [ch]D5[/ch]
que el silencio es el que se fué
             [ch]A5[/ch]
y no va a volver
Entonces el dolor zafó
con mil cuestiones sin perdón
supo ver que el silencio
es el que se fué y ni piensa en volver

CORTE RIFF 2

Sin venganza de eso que pasó
y sin verguenza ni perdón
Supo ver que esas noches no iban a volver

ESPERO LES GUSTE

  JUANJO
VILLA CELINA
Suggest correction
Give kudos to tab author, rate the tab!
1 2 3 4 5
comments
print report bad tab
guest
You may want to rate the tab now too:
select rating
Wanna post a correction for this tab? Suggest correction