Oops, an error
Loading. Please wait.

Sueño Profundo Chords

7 views 1 this week
no commentswrite comment
1 2 3 4 5
3 more votes to show rating
add to favorites
launch autoscroll
font size
0
reset
transpose
0
reset
simplify chords
display chords
guitar tuner
Autoscroll
slow
fast
+/-
esc
set tempo
stop
Help us to improve Ultimate-Guitar.com Take our survey!
×
Intro:  B5  A5  B5  A5  SI5  LA5  G5  LA5   x 2


               B5
Se enciende el fuego otra vez
(A5)       B5
Quemando mi realidad
(A5)      B5
El humo que despierta las almas
(A)  G5         A5
 Para dar una vez mas

Esperando por vivir
Siempre un poco mas
Que solo el alma no puede
                                 E5  (Riff 1)
Soportar los golpes de esta vida


F#5                      D5          A5   (Riff 2)
     Es una especie de ensueño estar aquí
F#5                   D5       A5    E5
     Donde tu grito y el mio se puedan unir
Son los cuatro vientos, me enseñan a ver
La verdad y la injusticia de nuestro vivir

. BASE INTRO
. RIFF 3

Sed de un sueño profundo
Que no se puede comprar
Aumentando mi esperanza
Que no niega la verdad

Animado por el gesto
Que me puede convencer
Y alimenta mis deseos
Para empujarme a crecer

Es una especie de ensueño estar aquí...

FINAL CON:   E5  G5  A5

Riff 1                  Riff 2

E----------------------     E---------------------
B----------------------     B---------------------
G----------------------     G--------------------
D----------------------     D--2-4-5-4-5-4-7*---
A--7-7-6-6-5-5-4-4----      A--0-0-0-0-0-0-0----
E-----------------------    E---------------------


Riff 3

E------------------------------------------------------------
B-------------------------------------------------------------
G--9ba-7------------------7*-9ba-7*---11-9-7-----------7-9-7*--
D----------9*---------7-9--------------------9*----7-9---------
A-----------------7-9--------------------------7-9-------------
E-------------------------------------------------------------

Referencias:  * : vibrar
              ba  : estirar y bajar


Hola!!! Alto tema, esta dedicado para mi amigo Juanjo (MS),
para todos los Malditos y para PILY q es una maza... Saludos y espero q les
 guste la transcripcion... chaooo
cualkier cosa escribanme...

juanjo_malditasuerte73@
juanjo_locura73@
Suggest correction
Give kudos to tab author, rate the tab!
1 2 3 4 5
comments
print report bad tab
guest
You may want to rate the tab now too:
select rating
Wanna post a correction for this tab? Suggest correction