Oops, an error
Loading. Please wait.

Solín Tab

version 1
version 1

Whole song

Interactive

82 views 3 this week
no commentswrite comment
1 2 3 4 5
3 more votes to show rating
add to favorites
launch autoscroll
font size
0
reset
how to read this tab
guitar tuner
Autoscroll
slow
fast
+/-
esc
set tempo
stop
Help us to improve Ultimate-Guitar.com Take our survey!
×
Saludos guitarros locos aqui les dejo de nuez otra de la
maldita note que hacian falta los tabs aqui se los pongo
para que los cheken.

Acotacion:

h= Hamer on
p= Pull off
/= Slide
~= Vibrato
pm=Palm mute


e|-5-6-5--5-6-8-6--5-6-5
B|-5-6-5--5-6-8-6--5-6-5
G|----------------------
D|---------------------- x 7      Riff 1
A|----------------------
E|----------------------

e|-5-6-5--5-6-8-6-5--
B|-5-6-5--5-6-8-6-5--
G|-------------------
D|------------------- x 1    Riff 1 cortado
A|-------------------
E|-------------------


 Aqui esta parte lo pueden hacer a dos liras
 vamos a llamarle:

     Riff 2   (Aunque realmente es igual a 1)

e|-5-6-5--5-6-8-6--5-6-5--
B|-5-6-5--5-6-8-6--5-6-5--
G|------------------------
D|------------------------ x 2
A|------------------------
E|------------------------
 |
 | 2°guitarra (Saxofon)
 |
e|-13/12-13---------------
B|--------------10h11p10--
G|------------------------
D|------------------------
A|------------------------
E|------------------------

Aqui es la parte de los acordes y ritmo
los acordes son faciles son solo 4
lo importante es el ritmo esta vastante rapido
si son buenos rasgueando ya la armaron
por que es un rasgueo con
un cierto grado de dificultad
tipo los rasgueos de mariachi jaja
pero solo basta que escuchen muy bien como va
voy a tratar de explicarlo graficamente
pero la neta esta muy complicado entenderlo asi
no hay como ver o escuhcar, pero bueno ahi les va:


Cada ves que la flecha va hacia abajo (en la guitarra
es al reves) osea de "e" a "G" hay que
hacer una especie de palm mute claro todo
esto tan rapido como se escucha en la cancion


e|--^-^--|-|-^-|-|-^--
B|--|-|--|-|-|-|-|-|--
G|--|-|--v-v-|-v-v-|--
D|--------------------  Procuren tocar solo las 3 cuerdas
A|--------------------
E|--------------------

 Acordes:

    Am    A#    F     G
e|--5--|--6--|--1--|--3--|
B|--5--|--6--|--1--|--3--|
G|--5--|--7--|--2--|--4--|
D|--7--|--8--|--3--|--5--|
A|--7--|--8--|--3--|--5--|
E|--5--|--6--|--1--|--3--|


   Am
Yo si lo conoci

vivia en la vecindad
   A#
jamas logro encontrar
    Am
trabajo mas formal.


                   Am
Machetero y vendedor de amor

pero la justicia le cayo
      A#
y al fin logro encontrar
Am
en la feria la chamaba ideal.


 --(Riff 2)--

  Am
Un dia Jose leia su Kaliman

y de ahi se le ocurrio tomar
    A#
el nombre de Solin
   Am
y convertirse en un gran faquir.

                  Am
Yo si i i lo conoci

antes de que fuera popular
   A#
salir con su disfraz
Am
y a toda la gente a deslumbrar.


     Saxofon

e|--------------
B|-5h6p5---5-5--
G|-------7------
D|-------------- x 4
A|--------------
E|--------------

Am
Soy el Gran Solin
leo las cartas
veo el futuro
hipnotizo
soy el Gran Solin.


--(Aqui a dos liras dos veces se repite)--

e|------------------------------------------
B|-6-5--------------------------------------
G|------2h3p2p0h2--2p0----0----0-2h3p2p0h2--
D|---------------------3-----3-------------- saxofon
A|------------------------------------------
E|------------------------------------------
 |   ^                 ^  ^   ^
 |   |                 |  |   |
e|-----------------------------------------
B|-----------------------------------------
G|-----------------------------------------
D|---7-----------------3--5---7-------------- Distor lira
A|---7-----------------3--5---7--------------
E|---5-----------------1--3---5--------------
          ^
          |
En la 2° ves aqui hay palm mute


e|-5h6p5---5-5--
B|-------8------
G|--------------
D|-------------- Saxofon
A|--------------
E|--------------

--("~"Esto de preferencia usen tremolo)--

e|------
B|-10~--
G|------
D|------ Distor lira
A|------
E|------

e|-7h8p7----7-7--
B|-------10------
G|---------------
D|--------------- Saxofon
A|---------------
E|---------------

e|------
B|-12~--
G|------
D|------ Distor lira
A|------
E|------

e|-8h9p8-6-8-8--
B|--------------
G|--------------
D|-------------- Saxofon
A|--------------
E|--------------

e|------
B|-13~--
G|------
D|------ Distor lira
A|------
E|------

e|-10h12p10-8-10-10--
B|-------------------
G|-------------------
D|------------------- Distor lira
A|-------------------
E|-------------------

e|------
B|-15~--
G|------
D|------ Distor lira
A|------
E|------


e|------------------------------------------------------
B|-6-5--------------------------------------------------
G|------------------2h3p2p0h2--2p0----0----0-2h3p2p0h2--
D|---------------------------------3-----3-------------- saxofon
A|------------------------------------------------------
E|------------------------------------------------------
 |
 |
e|-5-6-5--5-6-8-6-5-6-5---------------------------------
B|-5-6-5--5-6-8-6-5-6-5---------------------------------
G|------------------------------------------------------
D|---------------------------------3--5--7-------------- Distor lira
A|---------------------------------3--5--7--------------
E|---------------------------------1--3--5--------------


Al final es un circulo de estas notas, no pongo todos
los rasgueos por que son demasiados y seria muy enrredosa
la tablatura pero escuchen bien como va la alternacion
entre nota y nota y veran que no es muy dificil

e|--5--8--6--5--
B|--5--5--5--5--
G|--5--5--5--5--
D|--------------  x 8
A|--------------
E|--------------


Solin...

e|--------
B|--------
G|-2p0h2--
D|--------  (Adorno de saxofon)
A|--------
E|--------

   Saxofon

e|-------------
B|5h6p5---5-5--
G|------7------
D|------------- x 2
A|-------------
E|-------------

e|-12h13p12----12-12-12h13p12----12-12--
B|----------15----------------15--------
G|--------------------------------------
D|--------------------------------------
A|--------------------------------------
E|--------------------------------------


Sobres ya saben mentada, felicitacion o ayuda a mi correo
que es oskir666_1@ espero los pueda haber orientado
para sacar esta rola saludos

Y que viva el rock carajo !!!

Transcripcion hecha por: Kemalos Rules
Suggest correction
Give kudos to tab author, rate the tab!
1 2 3 4 5
comments
print report bad tab
guest
You may want to rate the tab now too:
select rating
Wanna post a correction for this tab? Suggest correction