Oops, an error
Loading. Please wait.

Solín Bass

version 1
version 1

Whole song

Interactive

144 views 1 this week
no commentswrite comment
1 2 3 4 5
3 more votes to show rating
add to favorites
launch autoscroll
font size
0
reset
guitar tuner
Autoscroll
slow
fast
+/-
esc
set tempo
stop
Transcripción del bajo por el cocol
cocoloski@


Se ve muy larga y da flojera la rola, pero se repiten
muchas cosas y es mas facil de lo que parece.

Intro
1er y 2da vuelta sin bass

Entras en la 3er vuelta
G-------------------------------------------------------
D-------2-3--------2-3--------2-3--------2-3------------
A-1-3-5------1-3-5------1-3-5------1-3-5------1--3--5---
E-------------------------------------------------------

Despues que de el tarolazo le das a La y despues a La Mi,
esto se hace 2 veces, si ahogas las cuerdas se escucha mejor.

Antes de que cante:

-------------------------------------------------------
-----2-3------2-3------2-3-5-3-2-----------------------
-0-3------0-3------0-3-----------3---------------------
-------------------------------------------------------

-------------------------------------------------------
-----2-3-----2-3-----2-3-2-3-2-------------------------
-0-3-----0-3-----0-3-----------3-----------------------
-------------------------------------------------------

Cuando entra Roco cantando:
-------------------------------------------------------
-----2-3-----2-3-----2-3-2-3-2-------------------------
-0-3-----0-3-----0-3-----------3-----------------------
-------------------------------------------------------

-------------------------------------------------------
-----2-3------2-3------2-3-5-3-2-----------------------
-0-3------0-3------0-3-----------3---------------------
-------------------------------------------------------

-------------------------------------------------------
-------------------------------------------------------
---3-------3-------5-------5---------------------------
-1---1---1---1---3---3---3---3-------------------------


-------------------------------------------------------
-----2-3-2-3-2------------------2-3-5-3-2--------------
-0-3-----------3------------0-3-----------3-0----------
-------------------------------------------------------

silencio  1:00 de la rola

-------------------------------------------------------
-----2-3-2-3-2--------2-3----2-3-----2-3-5-3-2---------
-0-3-----------3--0-3----0-3-----0-3-----------3-------
-------------------------------------------------------


-------------------------------------------------------
-------------------------------------------------------
---3-------3-------5-------5---------------------------
-1---1---1---1---3---3---3---3-------------------------


-------------------------------------------------------
-----2-3-2-3-2--------2-3-2-3-2------------------------
-0-3-----------3--0-3-----------3----------------------
-------------------------------------------------------


Puente
-------------------------------------------------------
-----2-3------2-3------2-3-5-3-2-----------------------
-0-3------0-3------0-3-----------3---------------------
-------------------------------------------------------

-----5-7-5---------------------------------------------
-7-8-------8-7-5---------------------------------------
------------------8-7-5--------------------------------
-------------------------8-6-5-3-----------------------

el segundo verso:

-------------------------------------------------------
-----2-3------2-3------2-3-5-3-2-----------------------
-0-3------0-3------0-3-----------3--------------------
-------------------------------------------------------

-------------------------------------------------------
-----2-3------2-3------2-3-5-3-2-----------------------
-0-3------0-3------0-3-----------3--------------------
-------------------------------------------------------

-------------------------------------------------------
-------------------------------------------------------
---3-------3-------5-------5---------------------------
-1---1---1---1---3---3---3---3-------------------------

-------------------------------------------------------
-----2-3-2-3-2------------------2-3-5-3-2--------------
-0-3-----------3------------0-3-----------3-0----------
-------------------------------------------------------

silencio 1:35 de la rola

-------------------------------------------------------
-----2-3-2-3-2--------2-3----2-3-----2-3-5-3-2---------
-0-3-----------3--0-3----0-3-----0-3-----------3-------
-------------------------------------------------------

-------------------------------------------------------
-------------------------------------------------------
---3-------3-------5-------5---------------------------
-1---1---1---1---3---3---3---3-------------------------

-------------------------------------------------------
-----2-3-2-3-2------------------2-3-5-3-2--------------
-0-3-----------3------------0-3-----------3------------
-------------------------------------------------------

el bajo va igual que las trompetas  4 veces:

---------------------------
---------------------------
----5h7-7-5h7-7-----------
---------------------------


Despus cuando grita le das:

---------------------------
---10-12-10----------------
------------12-10(10)(0)--
---------------------------

Después no toca el bajo hasta que vuelva igual
que la trompeta, pero esta vez sube de tono:

-----------------------------------------------
-5h7-7-5h7-7--7h9-9-7h9-9--9h10-10-9h10-10--
-----------------------------------------------
-----------------------------------------------

---------------------
-10h12-12-10h12-12--
---------------------
---------------------


y acaba igual

---------------------------
---10-12-10----------------
------------12-10(10)(0)--
---------------------------

Después se toca 2 veces esto,

-------------------------------------------------------
-----2-3------2-3------2-3-5-3-2-----------------------
-0-3------0-3------0-3-----------3---------------------
-------------------------------------------------------

-------------------------------------------------------
----------------------2-3-2-3-2------------------------
---3---3---5---5--0-3-----------3----------------------
-1---1---3---3-----------------------------------------

En el riff de lira no se hace nada durante 4 vueltas
pero despues:

------------------------------------------------------
-----7-----7-----7-----7--------------------------
---7------7------7------7-----------------------------
-5------5------5------5------5------------------------

luego va igual que las trompetas 2 veces:

---------------------------
---------------------------
----5h7-7-5h7-7-----------
---------------------------

y para terminar:

---------------------------
---------------------------
---5h7-7-5h7-7-5h7-7-5h7-7-
---------------------------

Saludos desde San LUis Rio Colorado, Sonora,
es mi primer trabajo espero que les guste.
Suggest correction
Give kudos to tab author, rate the tab!
1 2 3 4 5
comments
print report bad tab
guest
You may want to rate the tab now too:
select rating
Wanna post a correction for this tab? Suggest correction