Oops, an error
Loading. Please wait.

Síntoma De La Infección Tab

version 2
version 2

Whole song

Interactive

41 views 3 this week
no commentswrite comment
1 2 3 4 5
3 more votes to show rating
add to favorites
launch autoscroll
font size
0
reset
how to read this tab
guitar tuner
×
Best way to learn
"Síntoma De La Infección"
Autoscroll
slow
fast
+/-
esc
set tempo
stop
Gente, les traigo el solo de Síntoma de la infección ya que
la otra tablatura es la guitara rítmica. Disfruten

E|----76~-----------76~-7976---------------------------------------|
B|---7---87--------7--------8-7h8p7~--15----15------------15-------|
G|--6------76-----6-------------------14b16-14b16b14p12---14b16-12~|
D|-4---------76~-4-------------------------------------14~---------|
A|-----------------------------------------------------------------|
E|-----------------------------------------------------------------|

E|-15b17-151412-------------------------------------------------------|
B|-------------15b17~-------------------------------------------------|
G|--------------------9h11p9h12p9h11p9h12p9h11p9h12p9h11p9------------|
D|--------------------------------------------------------12~---------|
A|--------------------------------------------------------------------|
E|--------------------------------------------------------------------|

E|--------------------------------------------------------------------|
B|------15~-15--------------------------------------------------------|
G|-14b16----14b16~-1412111211h12p11-----------------------------------|
D|---------------------------------1214~-12---------------------------|
A|-----------------------------------------14151415141514~------------|
E|--------------------------------------------------------------------|

E|--------------------------------------------------------------------|
B|---------------------------------------------------7h8p7-7810~------|
G|------------------------------------------7h9p7--79-----9-----------|
D|-------------------------------7h9p7--7910-----10-------------------|
A|-12-----------------7h9p7--7910-----10------------------------------|
E|---141514-12101212~------10-----------------------------------------|
Suggest correction
Give kudos to tab author, rate the tab!
1 2 3 4 5
comments
print report bad tab
guest
You may want to rate the tab now too:
select rating
Wanna post a correction for this tab? Suggest correction