Oops, an error
Loading. Please wait.

Montañas Tab

1 view 1 this week
no commentswrite comment
1 2 3 4 5
3 more votes to show rating
add to favorites
×
Save as Personal and add changes to this tab that will be seen only by you. Learn more ›
×
You can save this tab as Personal to edit and correct it or add notes. All changes will be seen only by you. Learn more »
save as personal
new!
launch autoscroll
font size
0
reset
how to read this tab
guitar tuner
Autoscroll
slow
fast
+/-
esc
set tempo
stop
Intro: [ch]E - [ch]C#m - MI - DO#m - MI[/ch] - DO#m[/ch]   |
       [ch]B - [ch]A[/ch] - SI[/ch]                        | x2

Riff Intro (x2)
        [ch]E               [ch]C#m         MI[/ch]               DO#m[/ch]
1|-----------------------------------------------------------
2|-----------------------------------------------------------
3|16-16-16--14-13-14-13-11-9----16-16-16--14-13-14-13-9-11-13
4|-----------------------------------------------------------
5|14-14-14--12-11-12-11--9-7----14-14-14--12-11-12-11-7--9-11
6|-----------------------------------------------------------
        [ch]E                [ch]C#m        [ch]B[/ch]          [ch]A[/ch]        SI[/ch]        MI[/ch]
1|----------------------------------------------------------------------
2|----------------------------------------------------------------------
3|16-16-16--14-13-14-13-11-9----9-9-9-11-11-11-11--14-14-14-13-11-9-11-9
4|----------------------------------------------------------------------
5|14-14-14--12-11-12-11--9-7----7-7-7--9--9--9--9--12-12-12-11--9-7--9-7
6|----------------------------------------------------------------------

    [ch]E[/ch]                    [ch]C#m[/ch]
Hoy exploto esa bomba a destiempo
           [ch]E[/ch]                 [ch]C#m[/ch]
es que el juicio era muy poco serio
[ch]E             [ch]C#m[/ch]      SI[/ch]
y lo que nos quedaba, sabiamos bien
    [ch]A     [ch]B   [ch]E    SI[/ch]        LA[/ch]     SI[/ch]
que no nos alcanzaba      (para nada)

El problema es la salida
la solucion no es la mentira
todo oscila entre extremos y por 7ma vez
el mas triste resulto ser el bueno (sin venenos)

   [ch]A                     [ch]B         LA[/ch]              SI[/ch]
Es que si quiero muevo montañas para alcanzarte ese premio
  F#m            [ch]D          [ch]A[/ch]              SI[/ch]
pero tambien necesito que me cumplas algunos sueños

        [ch]E               [ch]C#m         MI[/ch]               DO#m[/ch]
1|-----------------------------------------------------------
2|-----------------------------------------------------------
3|16-16-16--14-13-14-13-11-9----16-16-16--14-13-14-13-9-11-13
4|-----------------------------------------------------------
5|14-14-14--12-11-12-11--9-7----14-14-14--12-11-12-11-7--9-11
6|-----------------------------------------------------------
      [ch]E                [ch]C#m    (solo)     [ch]B[/ch]             LA[/ch]      SI[/ch]
---------------------------------------------------------------------12----
----------------------------------------------------------12-10-9-10----10-
16-16-16--14-13-14-13-11-9---------------9-11-11p9-11-9--------------------
-------------------------------------9p11---------------11-----------------
14-14-14--12-11-12-11--9-7-------9p11--------------------------------------
---------------------------------------------------------------------------

[ch]E             [ch]C#m                        MI[/ch]            DO#m[/ch]
------------------------------------------------------------------------
------------------12-12-12-12--------------12b14---------12b14--10-11-12
9-----9-----9--11b13-----------11b13b11-9--------11b13-9----------------
-11p9--9p11-------------------------------------------------------------
------------------------------------------------------------------------
------------------------------------------------------------------------

        [ch]E                   [ch]C#m[/ch]                     SI[/ch]
------------12------12---------12---------12---------------------------
--------9-10----9-10----10-9-10----10-9-10----10-9----16-17-16-14-16-14
11b13-9-----------------------------------------------16-18-16-14-16-14
-----------------------------------------------------------------------
-----------------------------------------------------------------------
-----------------------------------------------------------------------

[ch]A       SI[/ch]       [ch]E[/ch]
--------------------
12-14-12-10-12-10-9-
13-14-13-11-13-11-9-
--------------------
--------------------
--------------------

No me conformo con lo que tengo
porque busco lo malo al pasado
ese sueño que te conte
es lo que realmente quiero tener, (y vos no entendes)

Si te doy todo te asusto
pero si te doy poco no es nada
busco el punto intermedio para no cansarme
y que vos tambien me extrañes (como el aire)

Es que si quiero muevo montañas para alcanzarte ese premio
pero tambien necesito que me cumplas algunos sueños

INTRO
Fin: [ch]E[/ch]
Suggest correction
Give kudos to tab author, rate the tab!
1 2 3 4 5
comments
print report bad tab
guest
Wanna post a correction for this tab? Suggest correction