Oops, an error
Loading. Please wait.

Corazón Travieso Tab

7 views 1 this week
no commentswrite comment
1 2 3 4 5
3 more votes to show rating
add to favorites
launch autoscroll
font size
0
reset
how to read this tab
guitar tuner
Autoscroll
slow
fast
+/-
esc
set tempo
stop
Help us to improve Ultimate-Guitar.com Take our survey!
×
Este tema es bn weno y es bn happy asi ke:

|-----------------| Mientras suena esta fig. de fondo le dan a los acordes
|-----------------|
|-----------------| D...
|-----4-------4---| D A D G
|-/5-5----7-5-----|
|-------5---------|

B         F#        G                D
Si sopla el viento nunca lo hace a mi favor
B     F#    G        A
pero yo nunca me caigo.
B         F#        G                D
Si mil gargantas me impiden alzar la voz
G                  D
entonces gritaré mas alto.
B         F#        G                D
Si el mundo quiere que vaya a contra reloj
B     F#    G        A
yo tranquilito y muy despacio.
B         F#        G                D
Si hay que bailar yo bailo al son de mi canción
B     F#    G        A
que nadie me marque los pasos

  D  G           D  A           D  G           D  A.
|---------------------------------------------------------|
|---------------------------------------------------------|
|-7--------------7--------------7--------------7----------|
|-7--4-4-4-5-4---7--4-4-4-5-7---7--4-4-4-5-4---7--4-4-4-5-|
|-5--------------5--------------5--------------5----------|
|---------------------------------------------------------|

B         F#        G                D
Todos me dicen que voy de mal en peor
B     F#    G        A
que me estoy haciendo muy malo
B         F#        G                D
y es que la vida me ha enseñado a ser cabrón
B     F#    G        A
y a distanciarme del rebaño

 D  G           D  A           D  G           D  A.
|---------------------------------------------------------|
|---------------------------------------------------------|
|-7--------------7--------------7--------------7----------|
|-7--4-4-4-5-4---7--4-4-4-5-7---7--4-4-4-5-4---7--4-4-4-5-|
|-5--------------5--------------5--------------5----------|
|---------------------------------------------------------|

D             B
oh oh oh oh oh duende del culo inquieto
F#            G
oh oh oh oh oh y corazón travieso
D             B
oh oh oh oh oh oculto en los tejados
F#            G
oh oh oh oh oh me encontraras cantando

|-----------------|
|-----------------|
|-----------------| D...D
|-----4-------4---|
|-/5-5----7-5-----|
|-------5---------|


|-----------------|
|-----------------|
|-4*--2*--4*---7--|
|-----------------|
|-----------------|  * Tremolo: se toca muchas veces...
|-----------------|

Solo: D B F# G x2
      B
      B F# G A (P.M)

B   F#  G   A
No me voy a arrodillar
no vais a verme en acción

D             B
oh oh oh oh oh duende del culo inquieto
F#            G
oh oh oh oh oh y corazón travieso
D             B
oh oh oh oh oh oculto en los tejados
F#            G
oh oh oh oh oh me encontraras cantando

|-----------------|
|-----------------|
|-----------------| D...
|-----4-------4---| D A D G
|-/5-5----7-5-----|
|-------5---------|
Suggest correction
Give kudos to tab author, rate the tab!
1 2 3 4 5
comments
print report bad tab
guest
You may want to rate the tab now too:
select rating
Wanna post a correction for this tab? Suggest correction