Oops, an error
Loading. Please wait.

Te Están Vigilando Tab

7 views 1 this week
no commentswrite comment
1 2 3 4 5
3 more votes to show rating
add to favorites
launch autoscroll
font size
0
reset
how to read this tab
guitar tuner
Autoscroll
slow
fast
+/-
esc
set tempo
stop
Intro:

-------------------------------------------------------
-------------------------------------------------------
-------------------------------------------------------
-------------------------666-5-3-----------------------
---3333-5-6----------3-------------66-5-3---3333-5-6-----
---------------4-4-6-----------------------------------

---------------------------------------
---------------------------------4-----
----------------------------5-5---5----
------------3333--6-3------------------
----------3-----------------------------
----4-4-6------------------------------

¡NO TE PROTEGEN TE ESTAN VIGILANDO!

A ----3-2-1-------------------
E ------------3-2-1-2-3------

Punteillo: C F G (una vez grave y otra el fa y sol agudo)

----------------------------------------------------------
------44-----44---------------44----44--6-4----------
--55-----55------7-5-4---55----55-----------7-4----
--------------------------5------------------------------
----------------------------------------------------------
----------------------------------------------------------

Cm
Juro callar,
                   Fm
y renunciar a mis ideas.
Gm
(como ellos)
Ser uno mas,
para integrarme en el sistema.

Pero cuando abres los ojos,
(lo ves muy claro)
te controlan a su antojo.
(manipulado)

G#    G#   G#            G#     G      F
Ver, oir, callar, y o -  be -  de -   cer.
                A#
Lo siento pero no me vais a convencer.

Punteillo: C F G (una vez grave y otra el fa y sol agudo)

----------------------------------------------------------
------44-----44---------------44----44--6-4----------
--55-----55------7-5-4---55----55-----------7-4----
--------------------------5------------------------------
----------------------------------------------------------
----------------------------------------------------------

Aki los mismos acordes ke en la letra de antes:

No puedo estar
entre unas mentes tan dormidas.
(tan envcaucadas)
Por que chaval,
si te ha vencido la fatiga
(no vales nada)

Piensa que no eres tu mismo
(y no un jugete)
si les das protagonismo
(te someten)

Ver, oir, callar, y obedecer.
Lo siento pero no me vais a convencer.


C5  G#5 F5 x3 A#5      A| -----5-------
                       E| -3-6--------- x2


C5
Hagan lo que hagan
            G#5
no me van a callar.
F5
No te protegen, te estan vigilando.
C5
Digan lo que digan
       G#5
no me van a callar.
F5
Estan en tu peli, estan en tu barrio.

Aquí se mete de fondo el riff de la intro y la otra guitarra va
haciendo el acompañamiento con los acordes:

C5
Hagan lo que hagan
       G#5
no me van a callar.
F5
Si tienes principios, sigue luchando.
C5
Digan lo que digan
       G#5             F5
no me van a callar.

A ----3-2-1-------------------
E ------------3-2-1-2-3------

Punteillo: C F G (una vez grave y otra el fa y sol agudo)

----------------------------------------------------------
------44-----44---------------44----44--6-4----------
--55-----55------7-5-4---55----55-----------7-4----
--------------------------5------------------------------
----------------------------------------------------------
---------------------------------------------------------- x2

----------------------------------------------------------
------66-----66---------------66----77--8-6----------
--77-----77------9-7-6---77----77-----------9-6----
--------------------------7------------------------------
----------------------------------------------------------
---------------------------------------------------------- x2

Puente otra vez a la letra:

C5  G#5 F5 x4
En la segunda vez que se hace la guitarra por detrás va haciendo:

D ---------------------------------6-5-3---------------------------------
A ---3-6-3-5-3-2-3------3-6-3--------3-----3-6-3-5-3-2-3----------
E -------------------------------------------------------------------------

C5
Hagan lo que hagan
       G#5
no me van a callar.
F5
No te protegen, te estan vigilando.
C5
Digan lo que digan
      G#5
no me van a callar.
F5
Estan en tu peli, estan en tu barrio.

Aquí se mete de fondo el riff de la intro y la otra guitarra
va haciendo el acompañamiento con los acordes:

C5
Hagan lo que hagan
       G#5
no me van a callar.
F5
Si tienes principios, sigue luchando.
C5
Digan lo que digan
       G#5             F5
no me van a callar.

No te protegen, te estan vigilando.

Rubentxu
Suggest correction
Give kudos to tab author, rate the tab!
1 2 3 4 5
comments
print report bad tab
guest
Wanna post a correction for this tab? Suggest correction