Oops, an error
Loading. Please wait.

Abril Bass Tab

47 views 1 this week
no commentswrite comment
1 2 3 4 5
3 more votes to show rating
add to favorites
launch autoscroll
font size
0
reset
guitar tuner
Autoscroll
slow
fast
+/-
esc
set tempo
stop
Help us to improve Ultimate-Guitar.com Take our survey!
×
Solo Guitarra Verso 1 y 2

Verso 3

¿adonde estás?...

         Puedo tocar el aire...
G|--------------------------------|
D|---7-6--------------------------|
A|-------4---2/7-6-5-4-3-2-345-7--|
E|-5-------2----------------------|

Y repasar los párrafos...

G|-----------------|
D|-----------------|
A|-9-7-6-5-4-3-2---|
E|---------------0-|

Que nunca se van...


Pienso quemar todos los vientos

Puedo fundir en una carta...

G|-------------6/7-6-4-/6-----------------------|
D|-------5/7------------------------------------|
A|---567-----5------------4----2/7-6-5-4-3-2--2-|
E|-5------------------------2-------------------|

un tiempo más...

G|----------------------------------6/7-6-4---------------------------------|
D|-----------------6/7----------7------------------------------7----4/6-----|
A|---------------------7---567----5----------7----11/12------7---7------4---|
E|-5--5-0-5-5-0-5--------5----------------------5-------12\5--------------2-|

Puedo tocar el aire donde estuvo el Dios

G|----------------------------------|
D|----------------------------------|
A|--2/7-6-5-4-3-2-345-7-6-5-4-3-2---|
E|--------------------------------0-|

Pienso quemar todos los vientos

Puedo fundir en una carta...

G|------------------------------------------------|
D|-------5/7--------------------------------------|
A|---567-----5/17-16-14-16-------2/7-6-5-4-3-2--2-|
E|-5-----------------------16-2-------------------|


               Final (opcional)
G|--------------------------------|
D|--------------7-----------------|
A|----------------7---------------|
E|-5-----5----------5-------------|
Suggest correction
Give kudos to tab author, rate the tab!
1 2 3 4 5
comments
print report bad tab
guest
You may want to rate the tab now too:
select rating
Wanna post a correction for this tab? Suggest correction