Oops, an error
Loading. Please wait.

El Marino Y La Mulata Tab

19 views 1 this week
no commentswrite comment
1 2 3 4 5
3 more votes to show rating
add to favorites
×
Save as Personal and add changes to this tab that will be seen only by you. Learn more ›
×
You can save this tab as Personal to edit and correct it or add notes. All changes will be seen only by you. Learn more »
save as personal
new!
launch autoscroll
font size
0
reset
how to read this tab
guitar tuner
Autoscroll
slow
fast
+/-
esc
set tempo
stop
Adjunto la intro de la canción.
Ivan la realiza con mandolina pero la adapté para guitarra.

--------10-12-9------|-9-12-9-10-7----|-10--9/7-----------10-||
----10----------10-P-|------------7---|--------10-7-s-10--10-||
11-------------------|----------------|-------------------11-||
---------------------|----------------|----------------------||
---------------------|----------------|----------------------||
---------------------|----------------|----------------------||

(s)= slide
(p)= pausa pequeña

--------10-12-9------|-9-12-9-10-7----|-10-9-7------------||
----10----------10-P-|------------7---|--------10-9-7-----||
11-------------------|----------------|---------------9---||
---------------------|----------------|-------------------||
---------------------|----------------|-------------------||
---------------------|----------------|-------------------||

Pueden adornar la intro realizando picking sobre algunas notas.
Escuchen en especial las versiones en concierto de Ivan

Saludos a los malpaiseros!
David Martínez
Cartago
dmartinezsalazar@
Suggest correction
Give kudos to tab author, rate the tab!
1 2 3 4 5
comments
print report bad tab
guest
Wanna post a correction for this tab? Suggest correction