Oops, an error
Loading. Please wait.

Presagio Chords

28 views 1 this week
no commentswrite comment
1 2 3 4 5
2 more votes to show rating
add to favorites
×
Save as Personal and add changes to this tab that will be seen only by you. Learn more ›
×
You can save this tab as Personal to edit and correct it or add notes. All changes will be seen only by you. Learn more »
save as personal
new!
launch autoscroll
font size
0
reset
transpose
0
reset
simplify chords
display chords
guitar tuner
Autoscroll
slow
fast
+/-
esc
set tempo
stop
Strumming
There is no strumming pattern for this song yet. and get +5 IQ
Hola a todos!!! Esta es mi primera trascripción.
Confieso que lo único que no estoy muy seguro de que sea así
es la primer estrofa. El resto si esta perfecto. Cualquier duda,
mentada de madre o, por que no, reparación de portoncitos
a fasaenz2@

Intro: esta es la parte que va cuando se canta antes
y durante de: ?Una gota de agua...?. Aquí solo se utiliza
la cuerda A y se hace como 12 veces.

A--------5---5-5----5-5-----3-h-5---5    x12

Luego viene una parte solo instrumental en la cual
me parece que hace:

D - D/F# - D/C - D/G

Ahora si, empieza la canción y va algo así:

            D
HUELE A AGUA
             D/F#
MONTE ADENTRO
                    D/C
Y EN EL CIELO BRAMAN
                  D/G
TAMBORES DE TRUENO

            D/F#
HUELE A AGUA
               C
DECIA MI ABUELO
                G
GARROTES DE AGUA
                D
GOLPEANDO CERROS

                         (Callar todas las cuerdas y
                          luego el golpe va en G)
Y EL VIENTO SE HA PUESTO NEGRO
              Bm
Y SABE A MIEDO
        Bm/A         D
Y ALLÁ VUELAN ZOPILOTES
                             A
EN TORBELLINOS SOBRE LOS TECHOS
                     Em5         Dsus
Y SE ENRREDAN LAS ARAÑAS EN MI PELO


HUELE A AGUA...

                         G
Y EL TIEMPO ES UN AGUJERO
                Bm
Y SABE A PÓLVORA
         Bm/A         D
SE RETUERSE EN EL PELLEJO
                         A
DE LA DESGRACIA LA MALA HORA
        Em5                         Dsus
HUELE A AGUA EN EL DESIERTO Y A LO LEJOS...


El solo de Ivan va algo asi 3 veces:

e-5---4---0----0--2--3---2---------------------------------
b----------------------------3----3--5--6----5----1-----2h3
g-----------------------------------------------------0----
d----------------------------------------------------------
a----------------------------------------------------------
E----------------------------------------------------------

C                         G
ESTÁN LOS GRANDES ANIMALES
                  D
ROMPIENDO LA SELVA
                       A
TRANGANDOSE LOS ÁRBOLES

C                         G
SON LOS ?GARROBOS LLAMARADA?
                D
MARIPOSAS NEGRAS
          A
EN EL AIRE

A                    D/F#
CUIDAO MAMA QUE ALLÁ VIENEN LAS BESTIAS
F                      E
SE ACERCAN LEVANTANDO POLVO EN EL LLANO
A                    D/F#
CUIDAO MAMA QUE VIENEN EN MANADA
F                      E
LAS FIERAS TERRIBLES Y HAMBRIENTAS ESTAN AQUÍ
A                    D/F#
CUIDAO MAMA QUE ALLÁ VIENEN LAS BESTIAS
F                      E
SE ACERCAN LEVANTANDO POLVO EN EL LLANO
A                    D/F#
CUIDAO MAMA QUE VIENEN EN MANADA
F                      E
Y APEZAR DE TODO LAS RANAS SIGUEN CANTANDO...


HUELE A AGUA...


                         G
Y EN LAS CALLES RONDAN MASCARAS
                Bm
DE CARCAJADAS
         Bm/A         D
ME PERCIGEN 5 MUECAS
                         A
Y SOY PRESO DE UNA FABULA
        Em5                         Dsus
HA LLOVIDO PERO SIEMPRE EN LA DISTANCIA
            D
HUELE A AGUA


UNA GOTA DE AGUA...


NOTAS

    D       D/F#    D/C     D/G     C       G       Bm
e---2---/---0---/---0---/---0---/---0---/---3---/---2---/
b---3---/---3---/---3---/---3---/---1---/---3---/---3---/
g---2---/---2---/---2---/---2---/---0---/---0---/---4---/
d---0---/---0---/---0---/---0---/---2---/---0---/---4---/
a-------/-------/---3---/-------/---3---/---2---/---2---/
E-------/---2---/-------/---3---/-------/---3---/-------/

   Bm/A     A      Em5    Dsus      F       E
e---1---/---0---/---0---/---3---/---1---/---0---/
b---3---/---2---/---1---/---3---/---1---/---0---/
g---4---/---2---/---0---/---2---/---2---/---1---/
d---4---/---2---/---2---/---0---/---3---/---2---/
a---0---/---0---/---2---/-------/---3---/---2---/
E-------/-------/---0---/-------/---1---/---0---/
Suggest correction
Give kudos to tab author, rate the tab!
1 2 3 4 5
comments
print report bad tab
guest
Wanna post a correction for this tab? Suggest correction