Oops, an error
Loading. Please wait.

Catequista Parroquial Bass Tab

21 views 1 this week
no commentswrite comment
1 2 3 4 5
3 more votes to show rating
add to favorites
launch autoscroll
font size
0
reset
guitar tuner
Autoscroll
slow
fast
+/-
esc
set tempo
stop
Help us to improve Ultimate-Guitar.com Take our survey!
×
Estructuras:

INTRO:
1|--------------------------------------------------|
2|-----5-7-7-5-----5-7-7-5--------------------------|
3|--7-----------7--------------5-7-7-5-----5-7-7-5--|
4|--------------------------6-----------6-----------|

PARTE 1:
1|-----------------------------------|
2|-----------------------------------|
3|-----------------------------------|
4|-0-0-0-0-0-3-2-1--0-0-0-0-3-2-1-0--|

PARTE 2:
1|-------------------------|
2|-------------------------|
3|-------------------------|
4|-0-0-0-0-0-0-0-3-3-2-2-1-|

PARTE 3:
1|-------------------------------------------------------|
2|---2-1-1-0---0---0-----2-1-1-0---0---0-----------------|
3|-0---------3---2----0----------3---2-----1-1-1-1-1-1-1-|
4|-------------------------------------------------------|

PARTE 4:
1|------------------------------------------|
2|------------------------------------------|
3|------------------------------------------|
4|-0-3-5-6-7--0-3-5-6-7--0-3-5-6-7--0-3-5-6-|

PARTE 5:
1|------------------------------------------------------------|
2|------------------------------------------------------------|
3|-4*--3-4-3-4-3-4-4-3-4-3-4--4*--3-4-3-4-3-4-3-4-3-4\--------|
4|------------------------------------------------------3-2-1-|

* El ritmo es mejor escucharlo.
\ Arrastrar hacia bajo.

PARTE 6:
1|-------------------------------------------------------------------------------------|
2|---5-7-7-5---5-7-7-5---------------------------------------------2-5-5-2--8-X-9-9-9--|
3|-7---------7-----------5-7-7-5---5-7-7-5---1-4-4-1---1-4-4-1--4-----------6-X-7-7-7--|
4|---------------------6---------6---------3---------3---------------------------------|

1|---------------------------------------------------------------------------------------|
2|---5-7-7-5---5-7-7-5---------------------------------------------2-5-5-2---------------|
3|-7---------7-----------5-7-7-5---5-7-7-5---1-4-4-1---1-4-4-1--4------------4-4-3-3-2---|
4|---------------------6---------6---------3---------3-----------------------------------|


PARTE 7:
1|-------------------------------------------|
2|---5-7-7-5---5-7-7-5-----------------------|
3|-7---------7-----------1-1-1-----5-7-7-7-7-|
4|------------------------------0------------|


Canción:
1º- INTRO (2 VECES)
2º- PARTE 1 (1 VEZ)
3º- SOLO VOZ:
	Me cachis en ros.
4º- PARTE 2 (4 VECES):
	Catequista parroquial, rompe tu bloqueo mental. 
	catequista parroquial, sal de tu estado fetal.
5º- PARTE 3 (2 VECES):
	Tanto enseñar a los niños cómo caer y partirse los piños, 
	cogerlos ahora que son pequeños y hacerles vivir en un mundo de sueños. 
6º- SOLO VOZ:
	Serán como tú unos pobres ingenuos. 
7º- INTRO (2 VECES)
8º- PARTE 1 (1 VEZ)
9º- PARTE 2 (4 VECES):
	Catequista parroquial, conmigo lo hiciste fatal. 
	Tu intención era buena pero yo me quedé subnormal. 
10º- PARTE 3 (2 VECES):
	Y entonces pasé años y años 
	sin distinguir verdad del engaño. 
	Y luego quise salir del rebaño y vi que lo bueno también hace daño. 
11º- SOLO VOZ:
	Y no es por ti si todavía me apaño. 
12º- PARTE 4 (4 VECES):
	 Ripipipipiu pipiolo, ripipipipiu.
	 Ripipipipiu pipiolo, ripipipipiu.
13º- PARTE 5 (1 VEZ):
	Tú sigue tu camino, que yo seguiré el mío. 
	Ya nos contaremos lo bien que nos ha ido. 
14º- PARTE 6 (2 VECES):
	Me cachis en ros, 
	me cachis en ros.
15º- PARTE 2 (6 VECES):
	Catequista parroquial, hay que cambiar el percal. 
	Un hombre que no piensa es lo mismo que un animal. 
16º- PARTE 3 (2 VECES):
	Estamos saliendo del siglo XX 
	y pensamos lo mismo que en el XIX. 
	¿Volveremos a usar el crucifijo para espantar a nuestros hijos? 
17º- SOLO VOZ:	
	Aún está por ver si seremos tan pijos. 
18º- PARTE 7 (1 VEZ):
	Me cachis en ros.
Suggest correction
Give kudos to tab author, rate the tab!
1 2 3 4 5
comments
print report bad tab
guest
You may want to rate the tab now too:
select rating
Wanna post a correction for this tab? Suggest correction