Oops, an error
Loading. Please wait.

Chanquete Ha Muerto Tab

59 views 1 this week
no commentswrite comment
1 2 3 4 5
3 more votes to show rating
add to favorites
launch autoscroll
font size
0
reset
how to read this tab
guitar tuner
×
Best way to learn
"Chanquete Ha Muerto"
Autoscroll
slow
fast
+/-
esc
set tempo
stop
Bien, pos esta es mi primera tablatura, e buskao la del xankete x tos
laos y solo encuentro los akordes prinzipales pero de la intro nada.
Por eso la pongo aki, los akordes q ya estan aki en lakuerda estan bien
asin q pa ke los voy a kopiar??La intro esta kasi kalkada del direkto
ke sale en el disko del dezimo aniversario,solo me falta un ritmillo con
akordes justo antes de este punteillo,
a ver si alguienlo saka ke yo no pueo.


|-------------------------7--------|-----------------------------------|
|---7--10-7-----------7-8---10-7---|---7--10-7-----------6-7-10-7------|
|-----------7-----7-9--------------|-----------7-----7-9----------7----|
|-------------7-9------------------|-------------7-9-------------------|x2
|----------------------------------|-----------------------------------|
|----------------------------------|-----------------------------------|

||----------------------|
||----------------8-7---|
||-----7----7---9-------| x2
||---9----9-------------|
||----------------------|
||----------------------|

||----------------------|
||----------------8-7---|
||-----7----7---9-------|x2
||--10---10-------------|
||----------------------|
||----------------------|

Repites eso un par de veces y aluego ya vuelves al segundo punteillo y
vas bajando trastes, asi mientras se muere el Txankete XD. Es decir, esto:

||---------------------------------------------------------------------||
||----------------8-7---------------------7-6-------------------6-5----||
||-----7----7---9--------------6----6---8------------5----5---7--------||
||---9----9------------------8----8----------------7----7--------------||
||---------------------------------------------------------------------||
||---------------------------------------------------------------------||
     bajando la velocidad como un güalman sin pilas,
          y si se te pira una nota mejor

Y ahora empezais con el raka raka a sako!!!!
CHANKETE A MUERTO! CHANKETE A MUERTO!! CHANKETEKETEKTEKTETE...


Ebaristo!!!!!
Suggest correction
Give kudos to tab author, rate the tab!
1 2 3 4 5
comments
print report bad tab
guest
You may want to rate the tab now too:
select rating
Wanna post a correction for this tab? Suggest correction