Oops, an error
Loading. Please wait.

Gebimétal Circo Tab

12 views 1 this week
no commentswrite comment
1 2 3 4 5
3 more votes to show rating
add to favorites
launch autoscroll
font size
0
reset
how to read this tab
guitar tuner
×
Best way to learn
"Gebimétal Circo"
Autoscroll
slow
fast
+/-
esc
set tempo
stop
Afinacion (EBGDAE)

Intro

|--12---11-10---9------------------12-|
|------------------12--10-9-----------|
|----------------------------11-9-----|
|-------------------------------------|
|-------------------------------------|
|-------------------------------------|


Are you ready to rock n' roll with me..!!   [x4]
|-------------------------------------|
|-------------------------------------|
|--2-----2-----3-----5-----3---2------|
|--2-----4-----5-----7-----5---4------|
|--0-0-0-4-0-0-5-0-0-7-0-0-5-0-4-0----|
|-------------------------------------|


-----Intro-----


[ch]A                        ([ch]C#-LA)     (DO#[/ch]-LA[/ch])
Gebimetal Gebimetal Circo!        Circo!

[ch]A                        ([ch]C#-LA)     (DO#[/ch]-LA[/ch])
Gebimetal Gebimetal Circo!        Circo!

[ch]B[/ch]
  Prefiero cortar mis venas,
[ch]D[/ch]
 antes que cortar mis melenas!


|-------------------------|
|-------------------------|
|-------------------------|
|-------------------------|
|----7----7---7----7------|
|-00---00---00---00---...-|


[ch]C# - MI[/ch]
(cambiando un rato mientras dice "Señoras y señores...")


-Esta tab se la dedico a Jose k es un buen GEBIMETAL Man xD-
(con cariño)

 "Para mas información ---> miguelonbf@
Suggest correction
Give kudos to tab author, rate the tab!
1 2 3 4 5
comments
print report bad tab
guest
You may want to rate the tab now too:
select rating
Wanna post a correction for this tab? Suggest correction