Oops, an error
Loading. Please wait.

Espuma Negra Tab

35 views 1 this week
no commentswrite comment
1 2 3 4 5
3 more votes to show rating
add to favorites
launch autoscroll
font size
0
reset
how to read this tab
guitar tuner
Autoscroll
slow
fast
+/-
esc
set tempo
stop
Help us to improve Ultimate-Guitar.com Take our survey!
×
Intro sin mucha distorsion

e|-----------------------
b|-----------------------
G|-----------------------
D|--5--5----5-----3------X6
A|--5--8----7-----3------
E|--5*-5X2--5X2---1*-----

a la tercera vez entra guitarra dos con punteados...

*= Muchas veces

Toda la cancion

    Hoy brillan mas las llamas ardientes y este lugar
e|----------------------------------
B|----------------------------------
G|----------------------------------
D|--5--------------5----5-----3-----
A|--5--------------8----7-----3-----
E|--5*-------------5X2--5X2---1*----

se desenreda entre tus labios
e|------------------------------
b|------------------------------
G|------------------------------
D|--5----------5----5-----3-----
A|--5----------8----7-----3-----
E|--5*---------5X2--5X2---1*----

   hoy quiero robar el aire caliente de este lugar
e|----------------------------------
b|----------------------------------
G|----------------------------------
D|--5--------------5----5-----3-----
A|--5--------------8----7-----3-----
E|--5*-------------5X2--5X2---1*----

para flotar sobre la ley, y entre las nubes sabotear...
e|----------------------------------
b|----------------------------------
G|----------------------------------
D|--5--------------5----5-----3-----
A|--5--------------8----7-----3-----
E|--5*-------------5X2--5X2---1*----

(Con mas distorsion)
e|----------------------------------
b|----------------------------------
G|----------------------------------
D|--5--------------5----5-----3-----
A|--5--------------8----7-----3-----
E|--5*-------------5X2--5X2---1*----

(Sin mucha distorsion)
Fuerza ancestral abrazame,
y aunque no quiero escapar librame del mal
entre tus manos soy cañaberal
entre las rocas soy ardiente braza y rencor...

Coro (Con mucha distorsion)
Hoy brillan mas las llamas ardientes y este lugar
se desenreda entre tus labios
hoy quiero sentir la arena caliente sobrevolar
los cafetales junto a ti... y entre las nubes boycotear...

(Sin mucha distorsion)
Fuerz ancestral abrazame
y aunque no quiero escapar librame del mal
entre tus manos soy cañaberal
entre las rocas soy ardiente braza y rencor...

Coro (Con mucha distorsion)
Hoy brillan mas las llamas ardientes y este lugar
Hoy brillan mas las llamas ardientes y este lugar
hoy quiero sentir la arena caliente sobrevolar
Hoy brillan mas las llamas ardientes y este lugar

Coro (Con mucha distorsion)
Hoy brillan mas las llamas ardientes y este lugar
se enreda pero
hoy quiero sentir la arena caliente de este lugar
se enreda pero
Hoy brillan mas las llamas ardientes y este lugar
se enreda pero
hoy quiero sentir la arena caliente sobrevolar...

Y eso seria... se acepta correcciones y sobre todo
el punteado de la otra guitar...
Ecuatoriano y kiteño con k
Vomo todavia mama vudu...
Suggest correction
Give kudos to tab author, rate the tab!
1 2 3 4 5
comments
print report bad tab
guest
You may want to rate the tab now too:
select rating
Wanna post a correction for this tab? Suggest correction