Oops, an error
Loading. Please wait.

Plazma Chords

38 views 1 this week
no commentswrite comment
1 2 3 4 5
3 more votes to show rating
add to favorites
launch autoscroll
font size
0
reset
transpose
0
reset
simplify chords
display chords
guitar tuner
×
Best way to learn
"Plazma"
Autoscroll
slow
fast
+/-
esc
set tempo
stop
Talento Ecuatoriano...
Página Web Oficial de Mamá Vudú:


Albúm: Macrosensor (2004)
Ritmo: 4/4
Tempo: 95

[Intro] (0:00) - Guitar1 G. Eléctrica

Distorsión
   Bb5      F5 F5 G5    G5       F5 F5 Bb5
e|-----|--------------|-----|--------------|
B|-----|--------------|-----|--------------|
G|--3--|--------------|-----|-----------3--|
D|--3--|-----3--3--5--|--5--|-----3--3--3--|
A|--1--|-----3--3--5--|--5--|-----3--3--1--|
E|-----|-----1--1--3--|--3--|-----1--1-----| (x4)

[Riff1] (0:10) - Guitar2 G. Eléctrica
Clean
   Bb5                  F5 F5 G5 G5
G|-----------|-----------------|-------------|---|
D|-----------|-----------1-0-1-|-0---1-0-1-0-|---|
A|-1-3h5-5---|-1-3h5-5---------|-------------|---|
E|-----------|-----------------|-------------|---| (x2)

[Verso]
Bb5                F5    G5
   Resolví buscar me___jor
          F5 Bb5              F5   G5  F5
   acepté tus hábitos, es lo me___jor

Bb5                   F5   G5
   Aplaqué tu discreció____n,
          F5 Bb5          F5        G5   F5
   recogí tus átomos, sentí el sa___bor

[Coro]
D#5               Bb5
   De tu voz asfixiada
                     D#5
   explícame sin querer
                      Bb5
   sin aliento, sin vapor (solo por hoy)

[Puente]
Bb5 F5 G5 F5 (x2)

[Verso]
Bb5                  F5  G5
   Me atreví a decir que no,
         F5 Bb5           F5  G5  F5
   escogí el pasado interce___ptor
Bb5                 F5  G5
   Regresé de tu dire___cción
              F5 Bb5            F5  G5
   hacia el fin atado, volví a se___ntir

[Coro] x2

[Puente]

[Coro] x3
Suggest correction
Give kudos to tab author, rate the tab!
1 2 3 4 5
comments
print report bad tab
guest
You may want to rate the tab now too:
select rating
Wanna post a correction for this tab? Suggest correction