Oops, an error
Loading. Please wait.

Extraño Ser Bass Tab

14 views 1 this week
no commentswrite comment
1 2 3 4 5
3 more votes to show rating
add to favorites
launch autoscroll
font size
0
reset
guitar tuner
Autoscroll
slow
fast
+/-
esc
set tempo
stop
Help us to improve Ultimate-Guitar.com Take our survey!
×
   INTRO

       C                            Dm
G|------------------------|--------------------------|
D|------------------------|--------------------------|
A|3--3--3--3--3--3--3--3--|5--5-------3-5--5--------5|
E|----35----35----35----35|----543--33------543--33--|

Cuantos días deberán pasar
Cuantas horas más tendremos que esperar

                 C
G|------------------------|
D|------------------------|
A|3--3--3--3--3--3--3--3--|
E|----35----35----35----35|


Extraño ser no puedo hablarte adorable ser

                  Dm
G|--------------------------|
D|--------------------------|
A|5--5-------3-5--5--------5|
E|----543--33------543--33--|


Cuanta gente vuela por aquí
Cuantos seres que no son igual a mí

                  C
G|-------------------------|
D|-------------------------|
A|3--3--3--3--3--3--3--3---|
E|----35----35----35----35-|


Mirando el tren tus ojos viajan
   Y yo espero ver que estás tan cerca mío,      cerca  mío

                          Dm               G        Dm     G
G|--------------------------------------|-------|------|------|
D|------------------------------------3-|-------|-----3|------|
A|5--5---------3-5--5----------3-5--55--|-----3-|5--55-|-----2|
E|-----543--33--------543--33-----------|3--33--|------|3--33-|

DESDE ACA SE REPITE DEL PRINCIPIO PERO LA ULTIMA
PARTE DEL VERSO ES MAS LARGA, AQUI ESTA


Mirando el tren tus ojos viajan
   Y yo espero ver que estás tan cerca mío,

                      Dm
G|--------------------------------------|
D|------------------------------------3-|
A|5--5---------3-5--5----------3-5--55--|
E|-----543--33--------543--33-----------|

         cerca  mío     cerca  mío

     G       Dm      G     Dm           G
G|-------|------|------|------|--------------------|
D|-------|-----3|------|-----3|-----3-5--5---------|
A|-----3-|5--55-|-----3|5--55-|-----------53------5|
E|3--33--|------|3--33-|------|3--33--------3--33--|


INTERLUDE

              C                            Dm
G|------------------------|--------------------------|
D|------------------------|--------------------------|
A|3--3--3--3--3--3--3--3--|5--5-------3-5--5--------5|
E|----35----35----35----35|----543--33------543--33--|


SE VUELVE A REPETIR EL VERSO DE LA MISMA FORMA QUE EN LA 1ª
REPETICION

Y CUIDADO POR QUE LA CANCION EN ESTA VERSION SUBE UN TONO PARTE CON D
EN EL ULTIMO VERSO,


Cuantos días deberán pasar
Cuantas horas más tendremos que esperar
                 D
G|-------------------------|
D|-------------------------|
A|5--5--5--5--5--5--5--5---|
E|----57----57----57----57-|

Extraño ser no puedo hablarte adorable ser

                  Em
G|---------------------------|
D|---------------------------|
A|7--7-------5-7--7--------7-|
E|----765--55------765--55---|


Cuanta gente vuela por aquí
Cuantos seres que no son igual a mí

                        D
G|-----------------------------|
D|-----------------------------|
A|5--5--5---5--5---5--5---5----|
E|----57-----57-----57-----57--|


Mirando el tren tus ojos viajan
   Y yo espero ver que estás tan cerca mío,      cerca  mío

                 Em               D
G|--------------------------|------------------------|
D|--------------------------|------------------------|
A|7--7-------5-7--7--------7|5--5--5--5--5--5--5--5--|
E|----765--55-------765--55-|----57----57----57----57|


                                  cerca miooooooooooooooo
                 Em               D
G|--------------------------|------------------------|
D|--------------------------|------------------------|
A|7--7-------5-7--7--------7|5--5--5--5--5--5--5--5--|
E|----765--55-------765--55-|----57----57----57----57|

SALUDOS A TODOS LOS QUE AMAN EL BAJO ...
EL FEÑAK0.. UN BESO CARO
Suggest correction
Give kudos to tab author, rate the tab!
1 2 3 4 5
comments
print report bad tab
guest
You may want to rate the tab now too:
select rating
Wanna post a correction for this tab? Suggest correction