Oops, an error
Loading. Please wait.

Ana Tab

version 3
version 3

Whole song

Interactive

by Maná
101 views 1 this week
no commentswrite comment
1 2 3 4 5
3 more votes to show rating
add to favorites
×
Save as Personal and add changes to this tab that will be seen only by you. Learn more ›
×
You can save this tab as Personal to edit and correct it or add notes. All changes will be seen only by you. Learn more »
save as personal
new!
launch autoscroll
font size
0
reset
how to read this tab
guitar tuner
Autoscroll
slow
fast
+/-
esc
set tempo
stop
LA AMIGOS!!!!COMO ESTAN ES EL TURNO DE UNA CANCIÓN CON UN
RIPMO DEL BUENO QUE ME GUSTA MUCHO Y VOLVI COMO YA SABEN PARA
DEJARLES ESTE TAB COMPLETITO OK AHI LES VA:
==========================COMIENZO=============================
INTRO: (EL INTRO ARRANCA ACIENDO ESTE ARPEGIO CON DISTORCIÓN)

1.---------7---------5----------4---------|
2.----------------------------------------|
3.------6-----6----------6---------6------|
4.----6---------6----------6----------6---|
5.--4-------------------------------------|
6.----------------------------------------|

1.---------7---------5----------4---------|
2.----------------------------------------|
3.------6-----6----------6---------6------|
4.----6---------6----------6----------6---|
5.--4-------------------------------------|
6.----------------------------------------|

(LUEGO ESTO)
1.-------|-----------------|
2.-------|-7-9/10-7/9------|
3.-------|-----------------|
4.-7-----|-----------------|
5.-7-----|-----------------|
6.-5-----|-----------------|

(AHORA VIENE EL SOLO DEL INTRO MIENTRAS SERGIO HACE EL SOLO
FHER RASGUE LOS SIGUIENTES ACORDES)

FHER:(C#m A F#m B)

SOLO:
1.------------------9-11-11b-12-11-12-12v(14)(12)(14)-12-11--------|
2.-12v-14-12-14-9-------------------------------------------12-----|
3.--------------------------------------------------------------11-|
4.---------------------------------------------------------------11|
5.-----------------------------------------------------------------|
6.-----------------------------------------------------------------|

1.------------------9-11/12------------------------------|
2.-12v14v-12-14-9----------10-10b(12)(10)-10v9-10--------|
3.-------------------------------------------------------|
4.-------------------------------------------------------|
5.-------------------------------------------------------|
6.-------------------------------------------------------|

1.--------------------------------------------------|
2.--------------------------------------------------|
3.--11b-13-11--9----9-------------------------------|
4.----------------11---11-9-11p9----9---------------|
5.-------------------------------11---11-9-7-9------|
6.----------------------------------------------9---|

VERSOS:

C#m             A
    Ana tiene quince
F#m            B
    niña se le vino un problemòn
C#m             A
    algo està creciendo
F#m                   B
    en su vientre hay algo en expansiòn.

(CON LOS ACORDES ANTERIORES)

El culpable ya huyò
pobre Ana sola se quedò
no le duele tanto eso
sino que lo niegue el maricòn

RIFF:(C#m A F#m B)

Ana no lo cuenta
Ana llueve llanto en su colchòn
y hay que ser discreta
ropa suelta esconde la ocasiòn

Se siente morir
pobre Ana no quiere vivir
si en casa la descubren
la corren, la azotan, la matan

RIFF:(C#m A F#m B)

CORO:
G#m                               A
Ana se ira algun dia se ira para siempre
Em                                 B
Ana se ira algun dia se ira al jamas
G#m                                A
Ana se ira algun dia se ira para siempre
Em                                B
Ana se ira algun dia se ira al jamas
            C#m A F#m B
no no no no.

(MIENTRAS SE TOCA EL CORO LA GUITARRA HACE ESTOS ARPEGIOS)
   X4       X4      X4      X4
1.-------|-------|-----0-|-------|
2.-----4-|-----5-|-------|-----4-|
3.---4---|---6---|---1---|---4---|
4.-6-----|-7-----|-2-----|-4-----|
5.-------|-------|-------|-------|
6.-------|-------|-------|-------|

Por cierto en casa de Ana
claro, nunca hubo comprensiòn
lo que màs lamenta Ana
es que nunca hubo educaciòn

Y en desesperaciòn
la vida de Ana se esfumaba
y todo por que aquel dìa
el globito y la conciencia se quedaron en un cajòn

(C#m A F#m B)

CORO:
G#m                               A
Ana se ira algun dia se ira para siempre
Em                                 B
Ana se ira algun dia se ira al jamas
G#m                                A
Ana se ira algun dia se ira para siempre
Em                                B
Ana se ira algun dia se ira al jamas
            C#m A F#m B
no no no no.

(MIENTRAS SE TOCA EL CORO LA GUITARRA HACE ESTOS ARPEGIOS)
   X4       X4      X4      X4
1.-------|-------|-----0-|-------|
2.-----4-|-----5-|-------|-----4-|
3.---4---|---6---|---1---|---4---|
4.-6-----|-7-----|-2-----|-4-----|
5.-------|-------|-------|-------|
6.-------|-------|-------|-------|

SOLO:
1.------------------9-11-11b-12-11-12-12v(14)(12)(14)-12-11--------|
2.-12v-14-12-14-9-------------------------------------------12-----|
3.--------------------------------------------------------------11-|
4.---------------------------------------------------------------11|
5.-----------------------------------------------------------------|
6.-----------------------------------------------------------------|

1.------------------9-11/12------------------------------|
2.-12v14v-12-14-9----------10-10b(12)(10)-10v9-10--------|
3.-------------------------------------------------------|
4.-------------------------------------------------------|
5.-------------------------------------------------------|
6.-------------------------------------------------------|

1.--------------------------------------------------|
2.--------------------------------------------------|
3.--11b-13-11--9----9-------------------------------|
4.----------------11---11-9-11p9----9---------------|
5.-------------------------------11---11-9-7-9------|
6.----------------------------------------------9---|

Se irà, se irà, se irà al jamàs x4
============================FIN===============================
BUENO AMIGOS ESO ESTODO ESPERO QUE LES GUSTE AHORA YA ESTA
COMPLETA EN ESTA PAGINA ASI QUE BUENO ESPERO QUE LES SALGA
"practiquen" OK CHAÚ.

 LEANDRO_TRANSCRIPCIONES@  20/01/06  16:21hs
 CHAÚ!!!!!!
Suggest correction
Give kudos to tab author, rate the tab!
1 2 3 4 5
comments
print report bad tab
guest
Wanna post a correction for this tab? Suggest correction