Oops, an error
Loading. Please wait.

Ana (Unplugged) Tab

version 3
version 3

Whole song

40 views 1 this week
no commentswrite comment
1 2 3 4 5
3 more votes to show rating
add to favorites
launch autoscroll
font size
0
reset
how to read this tab
guitar tuner
×
Best way to learn
"Ana (unplugged)"
Autoscroll
slow
fast
+/-
esc
set tempo
stop
bueno pues ya habia corregido la rola
pero lo volvi a hacer porke ya sake la intro como la toca sergio
hace mas arreglos durante la rola
pero esos no los he sacado todavia
bueno la intro va +- asi...

lo ke hace primero es un cambio de C#m a C#sus y otra ves C#m,
para luego hacer el cambio, separare un poco los cambios para
ke se vean un poco mas legibles, pero ya saben ke todo es continuo...


Intro (se repite 2 veces)
e--4-4-4-4-4--4-4--4-4-4-4-4-4--4-4--0-0-0-0-0-0--0-0-0-0--|
B--5-5-4-4-4--4~5--5-5-5-5-5-5--5-5--0-0-0-0-0-0--0-0-0-0--|
G--6-6-6-6-6--6-6--6-6-4-4-4-4--4~6--2-2~1-1-1~2--2-2-2-2--|
D--6-6-6-6-6--6-6--7-7-7-7-7-7--7-7--2-2-2-2-2-2--1-1-1-1--|
A--4-4-4-4-4--4-4--4-4-4-4-4-4--4-4--0-0-0-0-0-0--2-2-2-2--|
E------------------------------------2-2-2-2-2-2-----------|

C#m         A
Ana tiene quince
F#m          B
niñia se le vino un problemon
C#m            A
algo esta creciendo
F#m               B
en su vientre hay algo en expansion
C#m               A
el culpable ya huyo
F#m        B
pobre ana sola se quedo
C#m          A
no le duele tanto eso
F#m           B
sino que lo niegue el maricon

(Intro (una sola ves))

C#m          A
Ana lo no cuenta
F#m          B
Ana llueve llanto en su colchon
C#m               A
y hay que ser discreta
F#m            B
ropa suelta esconde la ocasion.
C#m         A
Se siente morir
F#m        B
pobre Ana no quieres vivir
C#m               A
si en casa la descubren
   F#m                    B
la corren, la azotan, la matan

(intro)

Coro

G#m
Ana se ira algun dia
                 A
se ira para siempre
E
Ana se ira de este mundo
             B
se ira al jamas
G#m
Ana se ira algun dia
                 A
se ira para siempre
E
Ana se ira de este mundo
             B
se ira al jamas

(intro)

(aki va arpegiado el verso)

C#m                     A
Por cierto en casa de Ana
F#m          B
claro nunca hubo comprension
C#m                 A
lo que mas lamenta Ana
F#m           B
es que nunca hubo educacion
C#m             A
y en desesperacion
F#m        B
la vida de Ana se esfumaba
C#m            A
y todo porque aquel dia
F#m
el globito y la conciencia
      B
se quedaron en un cajon

(Intro)

Coro
G#m
Ana se ira algun dia
              A
se ira para siempre
E
Ana se ira de este mundo
             B
se ira al jamas
G#m
Ana se ira algun dia
              A
se ira para siempre
E
Ana se ira de este mundo
             B
se ira al jamas

Solo:
e-------------------------------------11-----11~12/11
B------------------------------12--14---12-14--------
G-----------------11~13-13~11-------------------------
D-11--11----11~14-------------------------------------
A--------14-----------------------------------------
E---------------------------------------------------

2a parte(de esta parte no estoy muy seguro)

e-----------------------------------
B--14-12/14/12----------------------
G-------------13-11/13/11-----11--11
D------------------------14-11------
A
E
(esta parte se repite 2 veces, es donde dice..
se ira, se ira, se ira al jamas)

e----9---11--12-12-12-12----
B--10--12--12-12-12-12------
G---------------------------

F#m         B                  C#m A
se ira, se ira,se ira al jamas
F#m         B
se ira, se ira,se ira al jamas
C#m         A
oooh no no noooo


(se toca lo anterior 2 veces mas)
y la salida es...

C#m B A
Suggest correction
Give kudos to tab author, rate the tab!
1 2 3 4 5
comments
print report bad tab
guest
You may want to rate the tab now too:
select rating
Wanna post a correction for this tab? Suggest correction