Oops, an error
Loading. Please wait.

Angel De Amor Tab

version 6
version 6
23 views 1 this week
no commentswrite comment
1 2 3 4 5
3 more votes to show rating
add to favorites
launch autoscroll
font size
0
reset
how to read this tab
guitar tuner
Autoscroll
slow
fast
+/-
esc
set tempo
stop
Help us to improve Ultimate-Guitar.com Take our survey!
×
Intro

e|-------------------------------------------------------|
b|---12---10---12------12---10---12------12---10---12----|
g|-9----9----9----9--9----9----9----9--9----9----9----9--|
d|-------------------------------------------------------|

e|---9---10---9------|
b|----------------12-|
g|-9---9----9---9----|
d|-------------------|

e|-------------------------------------------------------|
b|---12---10---12------12---10---12------12---10---12----|
g|-9----9----9----9--9----9----9----9--9----9----9----9--|
d|-------------------------------------------------------|

e|--------------------|
b|---9---10---12---9--|
g|-9---9----9----9----|
d|--------------------|

e|---------------------------------------------------|
b|---10---12---9---10-9------------------------------|
g|-11---9----9---9------9-----11---13---9---7--6-----|
d|-------------------------/11---11---9---7------7---|

e|---------------------------------------|
b|---------------------------------------|
g|--------9--------------------9---------|
d|-11--9-----9--11---11--9--7-----77--9~-|

Verso
Quien te corto las alas mi angel
e|-----------------------|
b|-----9-----7-----------|
g|---9-----9-----9-9-5/6-|
d|-7-----7-----7---------|

Quien te arranco los sueños hoy
e|------------------------|
b|-----10----12----9---10-|
g|---9-----9-----9---9----|
d|-9-----9-----9----------|

Quien te arrodillo para humillarte
e|-----------------------|
b|-----9-----7-----------|
g|---9-----9-----9-9-5/6-|
d|-7-----7-----7---------|

Y quien enjaulo tu alma amor
e|------------------------|
b|-----10----12----9---10-|
g|---9-----9-----9---9----|
d|-9-----9-----9----------|

Déjame curarte vida Déjame darte todo mi amor
e|-------------------------|
b|-------------------------|
g|--7---------9/6----------|
d|--7---------9/6-----2-4--|
a|--5---------7/4---4------|
e|-------------------------|

Angel, angel, angel de amor
e|-------------------------------------------------------|
b|---12---10---12------12---10---12------12---10---12----|
g|-9----9----9----9--9----9----9----9--9----9----9----9--|
d|-------------------------------------------------------|

e|---9---10---9------|
b|----------------12-|
g|-9---9----9---9----|
d|-------------------|

No te abandones, no te derrumbes amor
e|-------------------------------------------------------|
b|---12---10---12------12---10---12------12---10---12--9-|
g|-9----9----9----9--9----9----9----9--9----9----9-----9-|
d|-------------------------------------------------------|

Quien ato tus manos ato el deseo
e|-----------------------|
b|-----9-----7-----------|
g|---9-----9-----9-9-5/6-|
d|-7-----7-----7---------|

Quien mato tu risa mato tu dios
e|------------------------|
b|-----10----12----9---10-|
g|---9-----9-----9---9----|
d|-9-----9-----9----------|

Quien sangro tus labios y tu credo
e|-----------------------|
b|-----9-----------------|
g|---9-----9-7---9-9-5/6-|
d|-7-----7-----7---------|

Porque lo permitiste angel de amor
e|------------------------|
b|-----10----12----9---10-|
g|---9-----9-----9---9----|
d|-9-----9-----9----------|

Déjame curarte vida Déjame darte todo mi amor
e|-------------------------|
b|-------------------------|
g|--7---------9/6----------|
d|--7---------9/6-----2-4--|
a|--5---------7/4---4------|
e|-------------------------|

Angel, angel, angel de amor
e|-------------------------------------------------------|
b|---12---10---12------12---10---12------12---10---12----|
g|-9----9----9----9--9----9----9----9--9----9----9----9--|
d|-------------------------------------------------------|

e|---9---10---9------|
b|----------------12-|
g|-9---9----9---9----|
d|-------------------|

No te abandones, no te derrumbes amor
e|-------------------------------------------------------|
b|---12---10---12------12---10---12------12---10---12----|
g|-9----9----9----9--9----9----9----9--9----9----9----9--|
d|-------------------------------------------------------|

e|--------------------|
b|---9---10---12---9--|
g|-9---9----9----9----|
d|--------------------|

Angel, angel, angel te doy mi amor
e|-------------------------------------------------------|
b|---12---10---12------12---10---12------12---10---12----|
g|-9----9----9----9--9----9----9----9--9----9----9----9--|
d|-------------------------------------------------------|

e|---9---10---9------|
b|----------------12-|
g|-9---9----9---9----|
d|-------------------|

Abre tus alas, deja tus sueños volar
e|-------------------------------------------------------|
b|---12---10---12------12---10---12------12---10---12----|
g|-9----9----9----9--9----9----9----9--9----9----9----9--|
d|-------------------------------------------------------|

e|--------------------|
b|---9---10---12---9--|
g|-9---9----9----9----|
d|--------------------|

Solo
e|------------------------------4/7-5--|
b|-10x10x10x10x10x10x10x10x10---4/7-5--|
g|--9xx9xx9xx9xx9xx9xx9xx9xx9----------|
d|--7xx7xx7xx7xx7xx7xx7xx7xx7----------|

e|-------------------------------------|
b|-10x10x10x10x10x10x10x10x10----------|
g|--9xx9xx9xx9xx9xx9xx9xx9xx9---4b--2--|
d|--7xx7xx7xx7xx7xx7xx7xx7xx7----------|

e|------------------------------4/7-5--|
b|-10x10x10x10x10x10x10x10x10---4/7-5--|
g|--9xx9xx9xx9xx9xx9xx9xx9xx9----------|
d|--7xx7xx7xx7xx7xx7xx7xx7xx7----------|

e|-------------------------------------|
b|-10x10x10x10x10x10x10x10x10----------|
g|--9xx9xx9xx9xx9xx9xx9xx9xx9---4b--2--|
d|--7xx7xx7xx7xx7xx7xx7xx7xx7----------|

e|----------------------------------------------------------|
b|-----------9-10-9--------------------9-10-12-14b-12-10-12-|
g|-----11-----------9-11----------11------------------------|
d|-/11----11-------------11---/11----11---------------------|

e|-----------------------------------------|
b|-----------------------------------------|
g|-----9--11-9----9------------------------|
d|-9-11--------11---9--7---7--9b--7---7--9-|
a|-----------------------9----------9------|

e|-/14x14x14x14x14-/12x12x12x12x12-/14~-|
b|-/14x14x14x14x14-/12x12x12x12x12-/14~-|
g|--------------------------------------|
d|--------------------------------------|

e|---------------------------------------|
b|---------------------------------------|X2
g|--------9--------------------9---------|
d|-11--9-----9--11---11--9--7-----77--9~-|

Angel, somos arena y mar
e|----------------|
b|----------------|
g|-11/-7-/-9-/-6--|
d|-11/-7-/-9-/-6--|
a|-9-/-5-/-7-/-4--|
No te abandones, no te derrumbes amor
e|--------------------------------------------------------|
b|----12---10---12------9---10---12---9-------------------|
g|-/9----9----9----9--9---9----9----9---------------------|
d|--------------------------------------------------------|

Angel, angel, angel te doy mi amor
e|-------------------------------------------------------|
b|---12---10---12------12---10---12------12---10---12----|
g|-9----9----9----9--9----9----9----9--9----9----9----9--|
d|-------------------------------------------------------|

e|---9---10---9------|
b|----------------12-|
g|-9---9----9---9----|
d|-------------------|

Abre tus alas, deja tus sueños volar
e|-------------------------------------------------------|
b|---12---10---12------12---10---12------12---10---12----|
g|-9----9----9----9--9----9----9----9--9----9----9----9--|
d|-------------------------------------------------------|

e|--------------------|
b|---9---10---12---9--|
g|-9---9----9----9----|
d|--------------------|

Angel
Pero mi amor ya nunca te derrumbes
e|-------------------------------------------------------|
b|---12---10---12------12---10---12------12---10---12----|
g|-9----9----9----9--9----9----9----9--9----9----9----9--|
d|-------------------------------------------------------|

e|--------------------|
b|---9---10---12---9--|
g|-9---9----9----9----|
d|--------------------|

e|-------------------------------------------------------|
b|---12---10---12------12---10---12------12---10---12--9-|
g|-9----9----9----9--9----9----9----9--9----9----9-----9-|
d|-------------------------------------------------------|
Suggest correction
Give kudos to tab author, rate the tab!
1 2 3 4 5
comments
print report bad tab
guest
You may want to rate the tab now too:
select rating
Wanna post a correction for this tab? Suggest correction