Oops, an error
Loading. Please wait.

Angel De Amor Bass Tab

version 2
version 2

Whole song

Interactive

66 views 1 this week
no commentswrite comment
1 2 3 4 5
3 more votes to show rating
add to favorites
launch autoscroll
font size
0
reset
guitar tuner
Autoscroll
slow
fast
+/-
esc
set tempo
stop
Help us to improve Ultimate-Guitar.com Take our survey!
×
Bueno aquí les dejo una trascripción del bajo de este increíble tema..
El otro tab tenia una bocha de errores así que aquí les dejo...
No puedo decir que me mate sacándola xq es re sencilla.. pero bue..
Va dedicado a mi amor.. Andru Levy.. jeje

Intro:

G|---------
D|---------
A|---------
E|-12-12/2-

G|----------------------------------------
D|-----0-2-2-----2-4------0-2-2-----------
A|-----------4-4----------------4-4-2-0---
E|-2-2----------------2-2---------------2-

Corte:

G|---------------------
D|---------------------
A|---------------------
E|-0-2----10-10-12-12--

Verso 1:

G|-----------------
D|-----------------
A|-----5-----------  x4
E|-2-2---55-00-4---

G|-------------------------
D|-4-------22--4-----------
A|----5-----------5--------
E|------55----------55-00--

Pre-Coro:

G|------------------------------------
D|--------------------------------2-4-
A|-5555555555555555777777774-44-4-----
E|------------------------------------

Estribillo:
G|----------------------------------------
D|-----0-2-2-----2-4------0-2-2-----------
A|-----------4-4----------------4-4-2-0---
E|-2-2----------------2-2-----------------

G|-----------------------------------
D|-----0-2-2-----2-4-----------------
A|-----------4-4-----------5-4-5-7---
E|-2-2----------------2-2------------


Verso 2:

G|-----------------------------------
D|-------------------------22-6-4----
A|----55-----------55----------------
E|-2----55-00----2-----55------------

G|-------------------------------------
D|--------------------------22-0-2-4---
A|----55------------55-----------------
E|------55-00-----2-----55-------------


G|-----------------------------------
D|-------------------------22-6-4----
A|----55-----------55----------------
E|-----55-00----2-----55-------------

G|--------------------------------------
D|----------------4----------22-0-------
A|----55------------55------------------
E|------55-00----------55-00------------

Pre- Coro:

Estribillo:
G|----------------------------------------
D|-----0-2-2-----2-4------0-2-2-----------
A|-----------4-4----------------4-4-2-0---
E|-2-2----------------2-2-----------------

G|-------------------------------------------
D|-----0-2-2-----2-4-------0-2-2---7777------
A|-----------4-4-----------------------------
E|-2-2----------------2-2--------------------

G|----------------------------------------
D|-----0-2-2-----2-4------0-2-2-----------
A|-----------4-4----------------4-4-2-0---
E|-2-2----------------2-2-----------------

G|-----------------------------------------
D|-----0-2-2-----2-4-------0-2-2-----2-4---
A|-----------4-4-----------------4-4-------
E|-2-2----------------2-2------------------

Corte 2:

G|--------------
D|--------------
A|--------------
E|-0-2-22-0-2---  x2

G|-----------
D|-00000-2---
A|---------4-
E|-----------
Corte 3:

G|----------------------------------------
D|-----0-2-2-----2-4------0-2-2-----------
A|-----------4-4----------------4-4-2-0---
E|-2-2----------------2-2-----------------

G|-----------------------------------------
D|-----0-2-2-----2-4-------0-2-2-----------
A|-----------4-4-----------------4-4-2-0---
E|-2-2----------------2-2----------------2-

Corte 1: x2

Estribillo:

G|------------------------------------------------
D|-------------0-2-2-----2-4------0-2-2-----------
A|-------------------4-4----------------4-4-2-0---
E|-2/12/2--2-2----------------2-2-----------------

G|-----------------------------------------
D|-----0-2-2-----2-4-------0-2-2-----------
A|-----------4-4-----------------4/7-7-4-2-
E|-2-2----------------2-2------------------

G|----------------------------------------
D|-----0-2-2-----2-4------0-2-2-----------
A|-----------4-4----------------4-4-2-0---
E|-2-2----------------2-2-----------------

G|---------------------------------------
D|-----0-2-2-----2-4-------0-2-2/777777--
A|-----------4-4-------------------------
E|-2-2----------------2-2----------------

Todo el estribillo se repite..
Cualquier duda o comment escriban..
aunque creo que esta 100 por ciento bien..
Suggest correction
Give kudos to tab author, rate the tab!
1 2 3 4 5
comments
print report bad tab
guest
You may want to rate the tab now too:
select rating
Wanna post a correction for this tab? Suggest correction