Oops, an error
Loading. Please wait.

Angel De Amor Tab

version 8
version 8
by Maná
87 views 1 this week
no commentswrite comment
1 2 3 4 5
2 more votes to show rating
add to favorites
×
Save as Personal and add changes to this tab that will be seen only by you. Learn more ›
×
You can save this tab as Personal to edit and correct it or add notes. All changes will be seen only by you. Learn more »
save as personal
new!
launch autoscroll
font size
0
reset
how to read this tab
guitar tuner
backing track
0:00
0:00
Autoscroll
slow
fast
+/-
esc
set tempo
stop
Hola colegas, soy fernando i les traigo el tab. de esta fabulosa
canción, pues les digo tiene arreglos para 3 guitarras, esta muy bien
me costo mucho sacarla, pero valió la pena.
De un pricicpio les digo, para que no me reclamen, que la forma de
acompañar las estrofas es un poco rara y a las ves simple, cuando estaba
sacando la canción me di cuenta que los acordes que acompañan a la voz,
son los siguientes (F#m , D , A , E), ya que oía un bajo que hacía eso,
pero después al sacar lo que hace la guitarra, me di cuenta que no hace
eso, sino que se queda en FA sostenido menor(tercera inversión), pero
es raro, porque con un sólo acordes acompaña las estrofas, ni yo creía lo
que estaba sacando, pero después de un rato me di cuenta que el bajo
juega un papel fundamental en las estrofas, es decir, es le bajo el que
le da vida a las estrofas, lleva la armonía, etc, y en cambio la guitarra
como que dice adorna lo que hace el bajo. Como yo no soy bajista sólo
saqué lo
que hace la 

                            SIMBOLOGÍA

~ deja sonar la nota.

V vibrato

x cuerdas sólo golpeada(que no suene).

/ slide hacia abajo.

 slide hacia arriba.

PM palm muting

M  cortar nota, es decir, has como un palm muting(ojo no es. OK)
   y corta el sonido de la nota, no la dejes sonar mucho tiempo,
   es como un trancadito con las manos para pisar las cuerdas y
   evitar que sigan sonando.

h Hammer on

^ bend

p Pull off


                       ÁNGEL DE AMOR

                          INTRO

e----------------------------------------------
B---12---10---12----------12---10---12---------
G-9----9----9----9------9----9----9----9-------
D----------------------------------------------
A----------------------------------------------
E----------------------------------------------

e------------------9---10---9-----------------
B---12---10---12----------------12------------
G-9----9----9----9---9----9---9----9----------
D---------------------------------------------
A---------------------------------------------
E---------------------------------------------

MIENTRAS SIGUE LA INTRODICCIÓN, QUE ES LO QUE ESTA ABAJO,
AQUÍ ENTRA LA GUITARRA 2(SE ENCARGA DE HACER EL ACOMPAÑAMIENTO),
Y HACE LA FIG 1(ESTÁ ABAJO).

e----------------------------------------------
B---12---10---12----------12---10---12---------
G-9----9----9----9------9----9----9----9-------
D----------------------------------------------
A----------------------------------------------
E----------------------------------------------

e---------------------------------------------
B---12---10---12---9---10---12---9------------
G-9----9----9----9---9----9----9---9----------
D---------------------------------------------
A---------------------------------------------
E---------------------------------------------

AQUÍ LA GUITARRA 2, COMIENZA A HACER LA FIG 2.

e---------------------------------4----------------
B----10---12---9---10---------7-------5---3-2V~~---
G-11----9----9---9----------6---6---4---2----------
D--------------------------------------------------
A--------------------------------------------------
E--------------------------------------------------


                        FIG. 1

SE TOCA SÓLO MARCANDO LOS ACORDES.


e-----------------------------------------
B-----------------------------------------
G-/11-11x--7-7-7x--/9-9-9--6-6-6-6x-----
D-/11-11x--7-7-7x--/9-9-9--6-6-6-6x-----
A-/9--9-x--5-5-5x--/7-7-7--4-4-4-4x-----
E-----------------------------------------


e----------------------------------------------
B----------------------------------------------
G-/11-11x--7-7-7x--/9-9-9-9-9-9-9-9-9-9-9-----
D-/11-11x--7-7-7x--/9-9-9-9-9-9-9-9-9-9-9-----
A-/9--9-x--5-5-5x--/7-7-7-7-7-7-7-7-7-7-7-----
E----------------------------------------------

                           FIG. 2
AQUÍ SE DEJA DE MARCAR LOS ACORDES, Y SE TOCA CON 

e-------------------------------------
B-------------------------------------
G-/11-11-7-7-7/-9-9-9-6-6-6-6/------
D-/11-11-7-7-7/-9-9-9-6-6-6-6/------
A-/9--9--5-5-5/-7-7-7-4-4-4-4/------
E-------------------------------------
(REPETIR 2 VECES)


                              CORTE

e-------------------------------------------------
B-------5-----------------------------------------
G-6--4----4--6------6--4--------7--/9999999999----
D--------------------------/7-7----/9999999999----
A--------------------------/5------/7777777777----
E-------------------------------------------------

MIENTRAS LA GUITARRA 1 HACE LO DE ARRIBA, LA GUITARRA 2 ACOMPAÑA CON ESTO:

Esto se toca con palm muting. acuerdate, haste que se toca el RE, es decir,
cuando se toca el RE ya no hay palm muting.

e------------------------------------------------------------------
B------------------------------------------------------------------
G-PM-/11-11-11-11-11-11-11-11-11-11-11-11-----7-/-9999999999------
D-PM-/11-11-11-11-11-11-11-11-11-11-11-11-7-7---/-9999999999------
A-PM-/9--9--9--9--9--9--9--9--9--9--9--9--5-----/-7777777777------
E------------------------------------------------------------------

                               ESTROFA

Bueno llegamos a esta parte, cuando la estes tocando, puede ser que
no te suene, ya que ni a mi me sonaba cuando lo saqué, pero pregunto
sabes porque no suena, ya que es el bajo que lleva la armonía marcando
un F#m , D , A , E, y la guitarra sólo adorna lo que hace el bajo.
Puedes acompañar con los acordes que hace el bajo, pero no suena para
nada, es decir, suena mal, tienes que tocar esto que te voy a dar, yo dije
en un principio que no suena, y el factor principal de esto es el
tiempo y el ritmo con el que se toca el acompañamiento de las estrofas.
oye bien el disco, para que te guíes.
Compruebalo por ti mismo que este es el verdadero acompañamiento de las
estrofas, oye el disco, pégale la oreja y verás que estoy en lo cierto.
Ya sabes, si no me crees compruebalo tu mismo.

Este es el acompañamiento de las estrofas:

e---------I
B---------I  Esto se toca una ves al inicio de cada estrofa,
G---6-6M--I  después te olvidas de esto y sólo te fijas en lo
D-7---7M--I  de abajo.
A---------I
E---------I

----------------------------------------------------------------I

e----------------------------------
B-7-M---7-M---7-M------------------
G-6-M---6-M---6-M---6-6M-----------
D-7-M---7-M---7-M-7---7M-----------
A----------------------------------
E----------------------------------
Esto se repite 8 veces(ojo sólo lo de abajo y no lo de arriba).

AHORA VIENEN LOS ARPEGIOS, AL FINAL DE CADA VERSO, SE HACE
UN ARPEGIO DIFERENTE, VOY A ENUMERARLOS, EL QUE VA PRIMERO
Y EL QUE VA DESPUÉS:

                         ARPEGIO 1

e-----4-----2--------------------------------
B---2---2-----2---5-2-3-2V~~-----------------
G-2-------2-----2----------------------------
D--------------------------------------------
A--------------------------------------------
E--------------------------------------------

                          ARPEGIO 2

e-----5-----7-----4---5~~------------------
B-------5-----5-----5----------------------
G-4h6-----6-----6--------------------------
D------------------------------------------
A------------------------------------------
E------------------------------------------

                      ARPEGIO 1

e-----4-----2--------------------------------
B---2---2-----2---5-2-3-2V~~-----------------
G-2-------2-----2----------------------------
D--------------------------------------------
A--------------------------------------------
E--------------------------------------------

                     ARPEGIO 3

e-----5-----7-------------------------------
B-------5-----5--------5--------------------
G-4h6-----6-----6--4/6---6^-----------------
D-------------------------------------------
A-------------------------------------------
E-------------------------------------------

                        PRECORO

LAS 2 GUITARRAS ACOMPAÑAN CON ESTO:

e----------------------------------------------------------
B----------------------------------------------------------
G-/7-7-7-7-7-7-7-7-7-7/-9-9-9-9-9-6-6-6-6-6---------------
D-/7-7-7-7-7-7-7-7-7-7/-9-9-9-9-9-6-6-6-6-6------4^-------
A-/5-5-5-5-5-5-5-5-5-5/-7-7-7-7-7-4-4-4-4-4--4-7----------
E----------------------------------------------------------

                            CORO

e----------------------------------------------
B---12---10---12----------12---10---12---------
G-9----9----9----9------9----9----9----9-------
D----------------------------------------------
A----------------------------------------------
E----------------------------------------------

e------------------9---10---9-----------------
B---12---10---12----------------12------------
G-9----9----9----9---9----9---9----9----------
D---------------------------------------------
A---------------------------------------------
E---------------------------------------------

e----------------------------------------------
B---12---10---12----------12---10---12---------
G-9----9----9----9------9----9----9----9-------
D----------------------------------------------
A----------------------------------------------
E----------------------------------------------


e-----------------------------------------------
B---12---10---12-----------12---10---12-9~~~---
G-9----9----9----9-------9----9----9------------
D-----------------------------------------------
A-----------------------------------------------
E-----------------------------------------------

MIENTRAS LA GUITARRA 1 HACE TODO LO DE ARRIBA DURANTE EL CORO,
LA GUITARRA 2 ACOMPAÑA CON ESTO:

e-------------------------------------
B-------------------------------------
G-/11-11-7-7-7/-9-9-9-6-6-6-6/------
D-/11-11-7-7-7/-9-9-9-6-6-6-6/------
A-/9--9--5-5-5/-7-7-7-4-4-4-4/------
E-------------------------------------
REPETIR 3 VECES

e-------------------------------------
B-------------------------------------
G-/11-11-7-7-7/-9~------------------
D-/11-11-7-7-7/-9~------------------
A-/9--9--5-5-5/-7~------------------
E-------------------------------------

                              ESTROFA 2

PRIMERO ENTRA LA GUITARRA 2, Y ACOMPAÑA CON ESTO ENTODA LE ESTROFA,
acuerdate en el tiempo y ritmo, porque si no no suena muy bien.


Este es el acompañamiento de las estrofas:

e---------I
B---------I  Esto se toca una ves al inicio de cada estrofa,
G---6-6M--I  después te olvidas de esto y sólo te fijas en lo
D-7---7M--I  de abajo.
A---------I
E---------I

----------------------------------------------------------------I

e----------------------------------
B-7-M---7-M---7-M------------------
G-6-M---6-M---6-M---6-6M-----------
D-7-M---7-M---7-M-7---7M-----------
A----------------------------------
E----------------------------------
Esto se repite 8 veces(ojo sólo lo de abajo y no lo de arriba).

AHORA VIENEN LOS ARPEGIOS, AL FINAL DE CADA VERSO, SE HACE
UN ARPEGIO DIFERENTE, VOY A ENUMERARLOS, EL QUE VA PRIMERO
Y EL QUE VA DESPUÉS:

                           ARPEGIO 1

e-----4-----2--------------------------------
B---2---2-----2---5-2-3-2V~~-----------------
G-2-------2-----2----------------------------
D--------------------------------------------
A--------------------------------------------
E--------------------------------------------

                       ARPEGIO 2

e-----5-----7-----4---5~~------------------
B-------5-----5-----5----------------------
G-4h6-----6-----6--------------------------
D------------------------------------------
A------------------------------------------
E------------------------------------------

                       ARPEGIO 4

e------2------------------------------
B----2---2---5-2~---3-2V~~------------
G--2-------2--------------------------
D-------------------------------------
A-------------------------------------
E-------------------------------------

                       ARPEGIO 3

e-----5-----7-------------------------------
B-------5-----5--------5--------------------
G-4h6-----6-----6--4/6---6^-----------------
D-------------------------------------------
A-------------------------------------------
E-------------------------------------------

                           PRECORO

LAS 2 GUITARRAS ACOMPAÑAN CON ESTO:

e----------------------------------------------------------
B----------------------------------------------------------
G-/7-7-7-7-7-7-7-7-7-7/-9-9-9-9-9-6-6-6-6-6---------------
D-/7-7-7-7-7-7-7-7-7-7/-9-9-9-9-9-6-6-6-6-6------4^-------
A-/5-5-5-5-5-5-5-5-5-5/-7-7-7-7-7-4-4-4-4-4--4-7----------
E----------------------------------------------------------


                              CORO

e----------------------------------------------
B---12---10---12----------12---10---12---------
G-9----9----9----9------9----9----9----9-------
D----------------------------------------------
A----------------------------------------------
E----------------------------------------------

e------------------9---10---9-----------------
B---12---10---12----------------12------------
G-9----9----9----9---9----9---9----9----------
D---------------------------------------------
A---------------------------------------------
E---------------------------------------------

e----------------------------------------------
B---12---10---12----------12---10---12---------
G-9----9----9----9------9----9----9----9-------
D----------------------------------------------
A----------------------------------------------
E----------------------------------------------

e---------------------------------------------
B---12---10---12---9---10---12---9------------
G-9----9----9----9---9----9----9---9----------
D---------------------------------------------
A---------------------------------------------
E---------------------------------------------

e----------------------------------------------
B---12---10---12----------12---10---12---------
G-9----9----9----9------9----9----9----9-------
D----------------------------------------------
A----------------------------------------------
E----------------------------------------------

e------------------9---10---9-----------------
B---12---10---12----------------12------------
G-9----9----9----9---9----9---9----9----------
D---------------------------------------------
A---------------------------------------------
E---------------------------------------------

e----------------------------------------------
B---12---10---12----------12---10---12---------
G-9----9----9----9------9----9----9----9-------
D----------------------------------------------
A----------------------------------------------
E----------------------------------------------

e---------------------------------------------
B---12---10---12---9---10---12---9------------
G-9----9----9----9---9----9----9---9----------
D---------------------------------------------
A---------------------------------------------
E---------------------------------------------

MIENTRAS LA GUITARRA 1 HACE TODO LO DE ARRIBA DURANTE EL CORO,
LA GUITARRA 2 ACOMPAÑA CON ESTO:

e-------------------------------------
B-------------------------------------
G-/11-11-7-7-7/-9-9-9-6-6-6-6/------
D-/11-11-7-7-7/-9-9-9-6-6-6-6/------
A-/9--9--5-5-5/-7-7-7-4-4-4-4/------
E-------------------------------------
REPETIR 8 VECES.

                               SOLO
El sólo comienza con un sencillo rasgueo.

e--2x-2x-2-2x-2x-2x-2-2x-2x-2x-2x--5/7^-5~~~----------
B--2x-2x-2-2x-2x-2x-2-2x-2x-2x-2x--5/7^-5~~~----------
G--2x-2x-2-2x-2x-2x-2-2x-2x-2x-2x---------------------
D-----------------------------------------------------
A-----------------------------------------------------
E-----------------------------------------------------


e--2x-2x-2-2x-2x-2x-2-2x-2x-2x-2x----------------------
B--2x-2x-2-2x-2x-2x-2-2x-2x-2x-2x----------------------
G--2x-2x-2-2x-2x-2x-2-2x-2x-2x-2x----------------------
D----------------------------------9h11^-7~~~----------
A------------------------------------------------------
E------------------------------------------------------


e--2x-2x-2-2x-2x-2x-2-2x-2x-2x-2x--5/7^-5~~~----------
B--2x-2x-2-2x-2x-2x-2-2x-2x-2x-2x--5/7^-5~~~----------
G--2x-2x-2-2x-2x-2x-2-2x-2x-2x-2x---------------------
D-----------------------------------------------------
A-----------------------------------------------------
E-----------------------------------------------------

e--2x-2x-2-2x-2x-2x-2-2x-2x-2x-2x----------------------
B--2x-2x-2-2x-2x-2x-2-2x-2x-2x-2x----------------------
G--2x-2x-2-2x-2x-2x-2-2x-2x-2x-2x----------------------
D----------------------------------9h11^-7~~~----------
A------------------------------------------------------
E------------------------------------------------------

MIENTRAS LA GUITARRA 1 HACE LO DE ARRIBA, AL MISMO TIEMPO LA
GUITARRA 3 HACE ESTO:

e------------------------------------------------------------
B-10x-10x-10-10x-10x-10x-10-10x-10x-10x-10x--10/12^-10~~~----
G-11x-11x-11-11x-11x-11x-11-11x-11x-11x-11x--9-/11^-9~~~~----
D-11x-11x-11-11x-11x-11x-11-11x-11x-11x-11x------------------
A-9-x-9-x-9--9-x-9-x-9-x-9--9-x-9-x-9-x-9-x------------------
E------------------------------------------------------------

e------------------------------------------------------------
B-10x-10x-10-10x-10x-10x-10-10x-10x-10x-10x------------------
G-11x-11x-11-11x-11x-11x-11-11x-11x-11x-11x------------------
D-11x-11x-11-11x-11x-11x-11-11x-11x-11x-11x--9h11^-7~~~------
A-9-x-9-x-9--9-x-9-x-9-x-9--9-x-9-x-9-x-9-x------------------
E------------------------------------------------------------

e------------------------------------------------------------
B-10x-10x-10-10x-10x-10x-10-10x-10x-10x-10x--10/12^-10~~~----
G-11x-11x-11-11x-11x-11x-11-11x-11x-11x-11x--9-/11^-9~~~~----
D-11x-11x-11-11x-11x-11x-11-11x-11x-11x-11x------------------
A-9-x-9-x-9--9-x-9-x-9-x-9--9-x-9-x-9-x-9-x------------------
E------------------------------------------------------------

e------------------------------------------------------------
B-10x-10x-10-10x-10x-10x-10-10x-10x-10x-10x------------------
G-11x-11x-11-11x-11x-11x-11-11x-11x-11x-11x------------------
D-11x-11x-11-11x-11x-11x-11-11x-11x-11x-11x--9h11^-7~~~------
A-9-x-9-x-9--9-x-9-x-9-x-9--9-x-9-x-9-x-9-x------------------
E------------------------------------------------------------

ANTES DE QUE COMIENCE LO BUENO LA GUITARRA 2 PUEDES ACOMPAÑAR A
 EL SOLO DE LA SIGUIENTE MANERA.
ORIGINALMENTE, LA GUITARRA 2 CUANDO ACOMPAÑA HACE UN F#m, UN D, Y
UN E, MIENTRAS QUE EL BAJO, VA A C#.TOMANDO ESTO EN CUENTA LA
GUITARRA ACOMPAÑA DE LA SIGUIENTE MANERA:


e-------------------------------------
B-------------------------------------
G-/11-11-7-7-7/-9-9-9-9-9-9-9-------
D-/11-11-7-7-7/-9-9-9-9-9-9-9-------
A-/9--9--5-5-5/-7-7-7-x-x-x-x-------
E----------------------9-9-9-9-------
REPETIR 4 VECES
PERO HAY UN INCONVENIENTE, SI CUANDO LA TOCAS NO HAY UN BAJO ACOMOAÑANDO
LO QUE TE ACABO DE DAR, NO TE VA A SONAR MUY BIEN, ASÍ QUE
TENDRAS QUE TOCAR EL ACOMPAÑAMIENTO DE ESTA MANERA:


e-------------------------------------
B-------------------------------------
G-/11-11-7-7-7/-9-9-9-6-6-6-6/------
D-/11-11-7-7-7/-9-9-9-6-6-6-6/------
A-/9--9--5-5-5/-7-7-7-4-4-4-4/------
E-------------------------------------
REPETIR 4 VECES

BUENO AHORA QUEDA DE PARTE TULLA VER CON QUE ACOMPAÑAS, YO TE
RECOMIENDO
 QUE USES LA PRIMERA OPCIÓN QUE TE DI, ASÍ NO TENGAS BAJO QUE
TE ACOMPAÑ

PUES AQUÍ ESTA EL SÓLO DE LA FABULOSA CANCIÓN, ACUERDATE QUE
 MIENTRAS SE
TOCA EL SOLO, SE ACOMPAÑA CON LO QUE TE ACABO DE DAR. PUES AQUÍ ESTÁ:

e---------------------------------------
B---------------------------------------
G----11----13-14-13---------------------
D/11----11----------14-14/16------------
A----------------------------16V~~~~----
E---------------------------------------

e------------------------------------------
B----------9-10-12h14^^^-12p10-12^^~~------
G----11------------------------------------
D/11----11---------------------------------
A------------------------------------------
E------------------------------------------

e-----------------------------------x-xx-------------
B-------7-5-------------------------x-xx-------------
G-4/6^-------6p4---------4^----4^~~-x-xx-----2-------
D-----------------7-4--------7^-----x-xx-4p2---4~----
A---------------------7p4-----------x-xx-------------
E-----------------------------------x-xx-------------

e-12/-14-14x-14x-14x-14x-14x-14x-14x-1412-12x-12x-12x-12x-12x12x12x12
B-12/-14-14x-14x-14x-14x-14x-14x-14x-1412-12x-12x-12x-12x-12x12x12x12
G---------------------------------------------------------------------
D---------------------------------------------------------------------
A---------------------------------------------------------------------
E---------------------------------------------------------------------

                                 CORTE
e-------------------------------------------------
B-------5-----------------------------------------
G-6--4----4--6------6--4--------7--/9999999999----
D--------------------------/7-7----/9999999999----
A--------------------------/5------/7777777777----
E-------------------------------------------------

MIENTRAS LA GUITARRA 1 HACE LO DE ARRIBA, LA GUITARRA 2 ACOMPAÑA CON ESTO:

Esto se toca con palm muting. acuerdate, haste que se toca el RE, es decir,
cuando se toca el RE ya no hay palm muting.

e------------------------------------------------------------------
B------------------------------------------------------------------
G-PM-/11-11-11-11-11-11-11-11-11-11-11-11-----7-/-9999999999------
D-PM-/11-11-11-11-11-11-11-11-11-11-11-11-7-7---/-9999999999------
A-PM-/9--9--9--9--9--9--9--9--9--9--9--9--5-----/-7777777777------
E------------------------------------------------------------------
EL CORTE SE VA HACER 2 VECES.

                           CORO 2

EN ESTE CORO, SOLAMENTE ACOMPAÑA LA GUITARRA 2 CON ESTO:

e-------------------------------------
B-------------------------------------
G-/11-11-7-7-7/-9-9-9-6-6-6-6/------
D-/11-11-7-7-7/-9-9-9-6-6-6-6/------
A-/9--9--5-5-5/-7-7-7-4-4-4-4/------
E-------------------------------------
SE HACE 2 VECES.

                            CORO 3

EN EL CORO 3 ENTRAN LAS 2 GUITARRAS, Y LA UNO HACE ESTO:

e----------------------------------------------
B---12---10---12----------12---10---12---------
G-9----9----9----9------9----9----9----9-------
D----------------------------------------------
A----------------------------------------------
E----------------------------------------------

e------------------9---10---9-----------------
B---12---10---12----------------12------------
G-9----9----9----9---9----9---9----9----------
D---------------------------------------------
A---------------------------------------------
E---------------------------------------------

e----------------------------------------------
B---12---10---12----------12---10---12---------
G-9----9----9----9------9----9----9----9-------
D----------------------------------------------
A----------------------------------------------
E----------------------------------------------

e---------------------------------------------
B---12---10---12---9---10---12---9------------
G-9----9----9----9---9----9----9---9----------
D---------------------------------------------
A---------------------------------------------
E---------------------------------------------
e----------------------------------------------
B---12---10---12----------12---10---12---------
G-9----9----9----9------9----9----9----9-------
D----------------------------------------------
A----------------------------------------------
E----------------------------------------------


e------------------9---10---9-----------------
B---12---10---12----------------12------------
G-9----9----9----9---9----9---9----9----------
D---------------------------------------------
A---------------------------------------------
E---------------------------------------------

e----------------------------------------------
B---12---10---12----------12---10---12---------
G-9----9----9----9------9----9----9----9-------
D----------------------------------------------
A----------------------------------------------
E----------------------------------------------

e---------------------------------------------
B---12---10---12---9---10---12---9------------
G-9----9----9----9---9----9----9---9----------
D---------------------------------------------
A---------------------------------------------
E---------------------------------------------

MIENTRAS LA GUITARRA 1 HACE TODO LO DE ARRIBA DURANTE EL CORO,
LA GUITARRA 2 ACOMPAÑA CON ESTO:

e-------------------------------------
B-------------------------------------
G-/11-11-7-7-7/-9-9-9-6-6-6-6/------
D-/11-11-7-7-7/-9-9-9-6-6-6-6/------
A-/9--9--5-5-5/-7-7-7-4-4-4-4/------
E-------------------------------------
REPETIR 8 VECES.


                             OUTRO

e---------------------------------------------
B-----12---10---12----------12---10---12------
G-6/9----9----9-----------9----9----9---------
D---------------------------------------------
A---------------------------------------------
E---------------------------------------------

e---------------------------------------------
B---12---10---12---9---10---9-----------------
G-9----9----9----9---9----9---9--11-9---------
D---------------------------------------------
A---------------------------------------------
E---------------------------------------------
REPETIR TODO 5 VECES.


e---------------------------------------------
B-----12---10---12----------12---10---12------
G-6/9----9----9-----------9----9----9---------
D---------------------------------------------
A---------------------------------------------
E---------------------------------------------

e-----------------------------------------------
B---12---10---12-----------12---10---12-9~~~----
G-9----9----9----9-------9----9----9------------
D-----------------------------------------------
A-----------------------------------------------
E-----------------------------------------------

MIENTRAS LA GUITARRA 1 HACE TODO LO DE ARRIBA, LA GUITARRA 2
ACOMPAÑA CON ESTO:

e-------------------------------------
B-------------------------------------
G-/11-11-7-7-7/-9-9-9-6-6-6-6/------
D-/11-11-7-7-7/-9-9-9-6-6-6-6/------
A-/9--9--5-5-5/-7-7-7-4-4-4-4/------
E-------------------------------------
REPETIR 11 VECES

e-------------------------------------
B-------------------------------------
G-/11-11-7-7-7/-9~------------------
D-/11-11-7-7-7/-9~------------------
A-/9--9--5-5-5/-7~------------------
E-------------------------------------


                              [ch]A[/ch] GUITARRA 3

BUENO, LA GUITARRA 3 ENTRA EN LA INTRO Y HACE TODA LA
INTRODUCCIÓN JUNTO CON LA GUITARRA 1, CON EL DETALLE DE
QUE LA GUITARRA 3 ENTRA FUERA DE TIEMPO, Y DESPUÉS SE CUADRA.
EN SI NO SE TE DECIR CUANDO ENTRA, Y TÚ DEBERAS OÍR BIEN
EL DISCO(CAMBIA LA CORNETA A LA CORNETA IZQUIERDA PARA QUE
 LA PUEDAS OÍR), PERO DESCUIDA, TE DARÉ UN ESQUEMA PARA QUE
TE GUÍES CUANDO ES QUE ENTRA LA GUITARRA 3.

AQUÍ TENEMOS LA INTRODUCCIÓN QUE HACE LA GUITARRA 1, Y DONDE
APERECE EL *, INDICA QUE ENTRA LA GUITARRA 3:

e----------------------------------------------
B---12---10---12----------12---10---12---------
G-9----9----9----9------9----9----9----9-------
D-----(*)--------------------------------------
A----------------------------------------------
E----------------------------------------------

PUES AHÍ ESTA UNA PARTE DE LA INTODUCCIÓN, ABAJO DEL 9 ESTÁ EL
ASTERISCO, Y ESO INDICA QUE EN ESE MOMENTO COMIENZA A ARPEGIAR LA
 GUITARRA 3, ES DECIR, CUANDO LA GUITARRA 1, PULSA EN LA TERCERA
CUERDA EL TRATE 9, ENTRA LA GUITARRA 3 HACIENDO LO QUE LE CORRESPONDE,
QUE ES ESTO:


e-------------------------------------------
B---12---10-12---------12---10-12-----------
G-9----9-------------9----9-----------------
D-------------------------------------------
A-------------------------------------------
E-------------------------------------------

e---------------9-10-9---------------------
B---12---10-12---------12------------------
G-9----9-----------------------------------
D------------------------------------------
A------------------------------------------
E------------------------------------------

e-------------------------------------------
B---12---10-12---------12---10-12-----------
G-9----9-------------9----9-----------------
D-------------------------------------------
A-------------------------------------------
E-------------------------------------------

e-------------------------------------------
B---12---10-12--9-10-12--9------------------
G-9----9------------------------------------
D-------------------------------------------
A-------------------------------------------
E-------------------------------------------

ºº(AQUÍ SE CUADRAN LAS DOSM GUITARRAS CON EL MISMOS TIEMPO).
e---------------------------------------------
B----10---12---9---10-------------------------
G-11----9----9---9----------------------------
D---------------------------------------------
A---------------------------------------------
E---------------------------------------------

e-------4---------------------------------
B---7-------5---3--2----------------------
G-6---6---4---2---------------------------
D-----------------------------------------
A-----------------------------------------
E-----------------------------------------


(YA EN EL CORTE LA GUITARRA 3, NO HACE NADA)

PUES AHÍ ESTÁ LO QUE HACE LA GUITARRA 3 EN LA INTRO,
 COMO PUEDES VER, PRIMERO ENTRA FUERA DE TIEMPO, Y DESPUÉS SE
CUADRA. YA SABES EN DONDE ENTRA NO, EN DONDE ESTÁ EL (*).

PUES AHORA TE TOCA A TI AGARRAR EL TIEMPO, LA GUITARRA VA
FUERA DE TIEMPO, HASTA QUE SE CUADRA(DONDE APARECE EL ºº),
 ATENCIÓN, NO PUEDES SEGUIR FUERA DE TIEMPO EN EL MOMENTO QUE
APARECE ESTO ºº, SINO Q TIENES QUE CUADRATE, E IR CON EL MISMO
TIEMPO DE LA GUITARRA 


Bueno espero que les halla gustado, les recomiendo que prectiquen
mucho el SOLO, EL ACOMPAÑAMIENTO DE LAS ESTROFAS, Y LA INTRODUCCIÖN
DE LA GUITARRA 3.
Disfrutenla, cualquier duda escribanme al correo, yo les ayudaré,
y también escribanme para ver que les pareció este TAB.
les habla fernando y chaoooooo.
Suggest correction
Give kudos to tab author, rate the tab!
1 2 3 4 5
comments
print report bad tab
guest
Wanna post a correction for this tab? Suggest correction