Oops, an error
Loading. Please wait.

Angel De Amor Bass Tab

version 3
version 3

Whole song

Interactive

32 views 1 this week
no commentswrite comment
1 2 3 4 5
3 more votes to show rating
add to favorites
launch autoscroll
font size
0
reset
guitar tuner
Autoscroll
slow
fast
+/-
esc
set tempo
stop
Help us to improve Ultimate-Guitar.com Take our survey!
×
Las cuerdas están afinadas así:

G|----      ~dejar sonar la nota
D|----      ///slide 
A|----      (*) nota opcional
E|----

Intro
-----------------------|----------------------|
-----------------------|----------------------|
-------4-5-7-7-5-4-4-0-|-------4-5-7~-5-4-2-0-|
-2-2-2-----------------|-2-2-2----------------|

Riff 1
------------------------------------------
------------------------------------------
------------------------5-5-5-7-7-7-7///0-
-2222222222222222222222-------------------

1er Verso      
-------------|-------------|-------------|
-------------|-------------|-------------|
-9-5-----7-7-|-9-5---------|-9-5-----7-7-|
-----5-5-----|-----5-5-5-4-|-----5-5-----|

----------------|
----------------|
-9-5------------|
-----5-5-5-4//0-|

Pre Coro
----------------------------------------
----------------------------------------
-555555555555555-7777777----------------
-------------------------9-9-99-9///0---

1er Coro
-----------------------|-----------------------|
-----------------------|-----------------------|
-------4-5-7-7-5-4-4-0-|-------4-5-7-7-5-4-2-0-|
-2-2-2-----------------|-2-2-2-------------(/0)|

-----------------------|--------------|
-----------------------|--------------|
-------4-5-7-7-5-4-4-0-|-------4-5-7~-|
-2-2-2-----------------|-2-2-2--------|


2do verso
---------------|-------------------|
---------------|-------------------|
---5-5---------|---5-5-------------|
-2-----5-5-0-0-|-2-----5-5-0-0-4/5-|

---------------|---------------------|
---------------|---------------------|
---5-5---------|---5-5---------------|
-2-----5-5-0-0-|-2-----5-5-0-0-5-4-0-|

---------------|-------------------|
---------------|-------------------|
---5-5---------|---5-5-------------|
-2-----5-5-0-0-|-2-----5-5-0-0-4/5-|

---------------|---------------------------|
---------------|---------------------------|
---5-5---------|---5-5---------------------|
-2-----5-5-0-0-|-2-----5-5-0-0-5-4-0-7///0-|

*Tocar Pre Coro

2do Coro
-----------------------|--------------------------|
-----------------------|--------------------------|
-------4-5-7-7-5-4-4-0-|-------4-5-7~-5-5-5-5-4-0-|
-2-2-2-----------------|-2-2-2--------------------|

-----------------------|-----------------------|
-----------------------|-----------------------|
-------4-5-7-7-5-4-2-0-|-------0-4-5~//--------|
-2-2-2-----------------|-2-2-2-------//9-9-7-5-|

-----------------------|--------------------------|
-----------------------|--------------------------|
-------4-5-7-7-5-4-4-0-|-------4-5-7~-5-5-5-5-4-0-|
-2-2-2-----------------|-2-2-2--------------------|

-----------------------|-----------------------|
-----------------------|-----------------------|
-------4-5-7-7-5-4-2-0-|-------0-4-5~//--------|
-2-2-2-----------------|-2-2-2-------//9-9-7-5-|

Riff 2

-------------|---------------------|
-------------|---------------------|
-------------|---------------------|
-0-2-2-0-2/0-|-0-2-2-0-2-0-0-0-4-2-|

Durante el solo
-----------------------|-------------------------|
-----------------------|-------------------------|
-------4-5-7-7-5-4-4-0-|-------4-5-7-7-5-4-5///0-|
-2-2-2-----------------|-2-2-2-------------------|

-----------------------|-----------------------|
-----------------------|-----------------------|
-------4-5-7-7-5-4-4-0-|-------4-5-7-7-5-4-2-0-|
-2-2-2-----------------|-2-2-2-----------------|

*Tocar Riff 1 (x2)

Luego

----------|
----------|
----------|
-///5///0-|

Final
-----------------------|-----------------------|
-----------------------|-----------------------|
-------4-5-7-7-5-4-4-0-|-------0-4-5~//--------|
-2-2-2-----------------|-2-2-2-------//9-9-7-5-|

-----------------------|--------------------|
-----------------------|--------------------|
-------4-5-7-7-5-4-4-0-|-------4-5-7~-5-4-2-|
-2-2-2-----------------|-2-2-2--------------|

-----------------------|-----------------------------|
-----------------------|-----------------------------|
-------4-5-7-7-5-4-4-0-|-------0-4-5//7-7-7-7-7-7//0-|
-2-2-2-----------------|-2-2-2-----------------------|

-----------------------|--------------------------|
-----------------------|--------------------------|
-------4-5-7-7-5-4-4-0-|-------4-5-7~-5-5-5-5-4-0-|
-2-2-2-----------------|-2-2-2--------------------|

-----------------------|--------------------------|
-----------------------|--------------------------|
-------4-5-7-7-5-4-4-0-|-------4-5-7~-5-5-5-5-4-0-|
-2-2-2-----------------|-2-2-2--------------------|

-----------------------|----------------------------|
-----------------------|----------------------------|
-------4-5-7-7-5-4-4-0-|-------4-5-7~-5-5---7-7-5---|
-2-2-2-----------------|-2-2-2------------7-------7-|

-----------------------|-----------------------------|
-----------------------|-----------------------------|
-------4-5-7-7-5-4-4-0-|-------0-4-5//7-7-7-7-7-7//0-|
-2-2-2-----------------|-2-2-2-----------------------|

Tocar (x3)
-----------------------|--------------------------|
-----------------------|--------------------------|
-------4-5-7-7-5-4-4-0-|-------4-5-7~-5-5-5-5-4-0-|
-2-2-2-----------------|-2-2-2--------------------|

En la cuarta:
-----------------------|---------------|
-----------------------|---------------|
-------4-5-7-7-5-4-4-0-|-------4-5-7~~~|
-2-2-2-----------------|-2-2-2---------|

Es mi primer tab para bajo y es posible que se me hayan
pasado algunas notas, o tal vez que falten, pero va muy
parecido. El ritmo es más o menos fácil de sacar.
Suggest correction
Give kudos to tab author, rate the tab!
1 2 3 4 5
comments
print report bad tab
guest
You may want to rate the tab now too:
select rating
Wanna post a correction for this tab? Suggest correction