Oops, an error
Loading. Please wait.

Angel De Amor Bass Tab

version 4
version 4

Whole song

Interactive

41 views 1 this week
no commentswrite comment
1 2 3 4 5
3 more votes to show rating
add to favorites
launch autoscroll
font size
0
reset
guitar tuner
×
Best way to learn
"Angel De Amor"
Autoscroll
slow
fast
+/-
esc
set tempo
stop
En esta tab hay partes de bajo 5 cuerdas y de bajo 4 cuerdas,
para los de 5 usenla normal como esta aquí,
y para los de 4 en los ultimos coros hay cambios
solo tienen que bajar una octava de la cuerda "B".


    INTRO
G|---------
D|---------
A|---------
E|-12/2----

G|--------------------------------------------------------------
D|-----------------------2-4-------------------------------------
A|---------4-5-7-7-7-4-4-------------4-5-7-7-7-4-4-2-0----------
E|-2-2-2-2------------------2-2-2-2--------------------22222222-

G|------------------------------
D|------------------------------
A|----------555555-7777777------
E|-0H2222222----------------5/0-


ESTROFA (Entra en la segunda parte)

G|-------------|-------------|-------------|
D|-4-----------|-4-----------|-4-----------|
A|---5-----7-7-|---5---------|---5-----7-7-|
E|-----5-5-----|-----5-5-4-4-|-----5-5-----|

G|----------------|
D|-4--------------|
A|---5------------|
E|-----5-5-5-4//0-|

PRE-CORO

G|----------------------------------------
D|------------------------------------2-4-
A|-55555555555555-5-5-77777777-4-44-4-----
E|---------------5-5----------------------

CORO

G|----------------------------------------------------
D|---------------------2-4----------------------------
A|---------5-7-7-7-4-4--------------5-7-7-7-4-4-2-0---
E|-2-2-2-2------------------2-2-2-2----------------

G|------------------------------------------------
D|---------------------2-4--------------------5/9-
A|---------5-7-7-7-4-4--------------5-4-5-7-------
E|-2-2-2-2------------------2-2-2-2---------------


ESTROFA
G|---------------|---------------|---------------|-----------------
D|-4-------------|-4-----------7-|-4-------------|-4---------------
A|---5-5---------|---5-5----7-7--|---5-5---------|---5-5-----7-7-7-
E|-------5-5-4-4-|------5-5------|-------5-5-4-4-|-------5-5----7--

G|---------------|---------------|---------------|-----------------
D|-4-------------|-4-----------7-|-4-------------|-4---------------
A|---5-5---------|---5-5----7-7--|---5-5---------|---5-5-----7-7-7-
E|-------5-5-4-4-|------5-5------|-------5-5-4-4-|-------5-5----7--


PRE-CORO

G|----------------------------------------
D|------------------------------------2-4-
A|-55555555555555-5-5-77777777-4-44-4-----
E|---------------5-5----------------------

CORO

G|--------------------------------------------------------
D|-----------------------2-4------------------------------
A|---------4-5-7-7-7-4-4--------------4-5-7-7-7-4-4-2-0---
E|-2-2-2-2--------------------2-2-2-2---------------------

G|--------------------------------------------------------
D|-----------------------2-4--------------------6/9-9-7-6-
A|---------4-5-7-7-7-4-4--------------4-5-7-7-7-----------
E|-2-2-2-2--------------------2-2-2-2---------------------

G|--------------------------------------------------------
D|-----------------------2-4------------------------------
A|---------4-5-7-7-7-4-4--------------4-5-7-7-7-4-4-2-0---
E|-2-2-2-2--------------------2-2-2-2---------------------

G|-----------------------------------------------------------
D|-----------------------2-4------------------------2-4------
A|---------4-5-7-7-7-4-4--------------4-5-7-7-7-4-4----------
E|-2-2-2-2--------------------2-2-2-2-------------------5/0--


SOLO

G|--------------
D|--------------
A|--------------
E|-0-2-22-0-2---  x2

G|------------------
D|------------------
A|-5-5-55-5-5-------
E|-------------5/14-


Para los que tienen bajos de 4 cuerdas usen lo anterior!
No sonara igual porque tiene que ser más grave por eso uso
[ch]A[/ch] cuerda ?B?

G|--------------------------------------------------------  X2
D|-----------------------2-4------------------------------
A|-------------------4-4------------------------4-4-2-0---
E|-2-2-2-2--------------------2-2-2-2---------------------
B|---------2-4-5-5-5------------------2-4-5-5-5-----------

PRE-CORO X 2

G|---------------------------------------------------
D|---------------------------------------------------
A|---------------------------5555555577777777--------
E|2222222222222-0H222222222---------------------5/0--


CORO

G|-------------------------------------------------------------
D|----------------------------2-4--------------------6/9-9-7-6-
A|--------------4-5-7-7-7-4-4--------------4-5-7-7-7-----------
E|-2/14/2-2-2-2--------------------2-2-2-2---------------------

G|--------------------------------------------------------
D|-----------------------2-4------------------------------
A|---------4-5-7-7-7-4-4--------------4-5-7-7-7-4-4-2-0---
E|-2-2-2-2--------------------2-2-2-2---------------------

G|-----------------------------------------------------------------
D|-----------------------2-4--------------------1414141414141414/0-
A|---------4-5-7-7-7-4-4--------------4-5-7-7-7--------------------
E|-2-2-2-2--------------------2-2-2-2------------------------------

G|-----------------------------------------------------------------
D|-----------------------2-4-----------------------------7---------
A|-------------------4-4-------------------------4-7-7-4-----------
E|-2-2-2-2--------------------2-2-2-2------------------------------
B|---------2-4-5-5-5------------------2-4-5-5-5--------------------

G|-----------------------------------------------------------------
D|-----------------------2-4-----------------------------7---------
A|-9-9---------------4-4-------------------------4-7-7-4-----------
E|----------------------------2-2-2-2------------------------------
B|---------2-4-5-5-5------------------2-4-5-5-5--------------------

G|-----------------------------------------------------------------
D|-------------------------2-4----------------------------9-9-7-6--
A|-9-9---------------4-4----------------------------7-7-7----------
E|------------------------------2-2-2-2----------------------------
B|---------2-4-5-5-5--------------------2-4-5-5-5------------------

G|--------------------------------------------------------------------
D|-------------------------2-4---------------------1414141414141414/0-
A|-9-9---------------4-4----------------------------------------------
E|------------------------------2-2-2-2-------------------------------
B|---------2-4-5-5-5--------------------2-4-5-5-5---------------------

G|-----------------------------------------------------------------
D|-----------------------2-4-----------------------------7---------
A|-9-9---------------4-4-------------------------4-7-7-4-----------
E|----------------------------2-2-2-2------------------------------
B|---------2-4-5-5-5------------------2-4-5-5-5--------------------

G|----------------------------------------------------------
D|-------------------------2-4------------------------------
A|-9-9---------------4-4-------------------5-4-5-7----------
E|------------------------------2-2-2-2---------------------
B|---------2-4-5-5-5----------------------------------------


Espero que les guste :)
Saludos desde Venezuela y DTBS..
Cualquier cosa o error diganme que lo arreglare..
Suggest correction
Give kudos to tab author, rate the tab!
1 2 3 4 5
comments
print report bad tab
guest
You may want to rate the tab now too:
select rating
Wanna post a correction for this tab? Suggest correction