Oops, an error
Loading. Please wait.

Arde El Cielo Bass Tab

version 1
version 1

Whole song

Interactive

95 views 1 this week
no commentswrite comment
1 2 3 4 5
2 more votes to show rating
add to favorites
launch autoscroll
font size
0
reset
guitar tuner
×
Best way to learn
"Arde El Cielo"
Autoscroll
slow
fast
+/-
esc
set tempo
stop
  -------------------------------------------------------------------
|Bueno esta es mi primera tablatura espero les guste.               |
|Solo tienen q escuchar para saber cuantas                          |
|veces hay q tocarlas y el tiempo.                                  |
 -------------------------------------------------------------------
|Tran:B. Nieves                                                     |
|Correo:stratobillextreme@                                 |
 ===================================================================

Intro:
G-------------|-----------||--------|
D-------------|-----------||--------|
A--12/4---0---|---2-------||----4---|
E-------------|-------4---||--------|

Verse #1 :

El bajo entra un poco mas tarde cuando dice:

Te deseo amor
G---------------|--------------|
D---------------|--------------|
A---4---0-0-----|--7-----------|x4
E---------------|-----7-7------|


G-------------|----------|
D-------------|----------|
A-------------|----------|
E--2----2-2-4-|-5--------|


Coro :

G-------------|-----------|
D-------------|-----------|
A----4---0----|---2-------|x2
E-------------|-------4---|

Verse #2 :

Se toca igual q el primero la primera ves,
luego hace este arreglo
G-------------|-------------|-------------|-------------|
D-------------|-------------|-------------|-------------|
A-4--0--0-----|--7----------|-4--0--0-----|--7--9-------|
E-------------|-----7-7-----|-------------|---------7---|

G---------------|-------------|-----------|---------------|
D---------------|-------------|-----------|---------------|
A--4--4---------|--2----------|-4---0--0--|--7-7--9-9-----|
E--------0--0---|-----2-2-----|-----------|------------7--|

G---------------|---------------|----------------|----------------|
D---------------|---------------|----------------|----------------|
A--4-4-4--------|--2-2-2--------|--4-4-4---------|--7-7-7---------|
E--------0-0-0--|--------2-2-2--|---------5-5-5--|---------7-7-7--|

G-------------|----------|
D-------------|----------|
A-------------|----------|
E--2----2-2-4-|-5--------|


Coro :

G-------------|-----------|------------|-------------|
D-------------|-----------|------------|-------------|
A----4---0----|---2-------|---4----0---|---2---------|
E-------------|-------4---|------------|---------4---|

G-------------|-----------|------------|--------------------|
D-------------|-----------|------------|--------------------|
A----4---0----|---2-------|---4----0---|--14-14--11-11------|
E-------------|-------4---|------------|----------------14--|

G-------------|-----------|
D-------------|-----------|
A----4---0----|---2-------|x4
E-------------|-------4---|

Solo :

G-------------|-----------|
D-------------|-----------|
A-------------|---9-------|x4
E---4----7----|-------9---|

G-------------|----------|
D-------------|----------|
A-------------|----------|
E--2----2-2-4-|-5--------|

Luego intro (guitarra sola)

Coro :
El bajo entra algo asi
G---------------------|
D---------------------|
A--14-14-14-11-11-----|
E-----------------14--|

G-------------|-----------|------------|-------------|
D-------------|-----------|------------|-------------|
A----4---0----|---2-------|---4----0---|---2---------|x2
E-------------|-------4---|------------|---------4---|

G-------------|-----------|------------|--------------------|
D-------------|-----------|------------|--------------------|
A----4---0----|---2-------|---4----0---|--14-14--11-11------|
E-------------|-------4---|------------|----------------14--|

G-------------|-----------|
D-------------|-----------|
A----4---0----|---2-------|
E-------------|-------4---|

Q la disfruten!!!
Lemuriabill
Suggest correction
Give kudos to tab author, rate the tab!
1 2 3 4 5
comments
print report bad tab
guest
You may want to rate the tab now too:
select rating
Wanna post a correction for this tab? Suggest correction