Oops, an error
Loading. Please wait.

Arde El Cielo Tab

version 5
version 5

Whole song

Interactive

41 views 1 this week
no commentswrite comment
1 2 3 4 5
3 more votes to show rating
add to favorites
launch autoscroll
font size
0
reset
how to read this tab
guitar tuner
Autoscroll
slow
fast
+/-
esc
set tempo
stop
Help us to improve Ultimate-Guitar.com Take our survey!
×
INTRO:

GUITARRA 2:

E|-------|--5-5--5-5-5-5-|-7--7--|-4-4--4-4-4-4-
A|-3-/-4-|--7-7--7-7-7-7-|-9--9--|-6-6--6-6-6-6-
D|-5-/-6-|--7-7--7-7-7-7-|-9--9--|-6-6--6-6-6-6- x3
G|-5-/-6-|---------------|-------|--------------
B|-------|---------------|-------|--------------
e|-------|---------------|-------|--------------

DESPUES DE TOCAR LAS TRES VECES TERMINA ASI:

E|-------|--5-5--5-5-5-5-|-7--7--7|-7-5-4-0---
A|-3-/-4-|--7-7--7-7-7-7-|-9--9--9|-9-7-6-2-4-
D|-5-/-6-|--7-7--7-7-7-7-|-9--9--9|-9-7-6-2-6-
G|-5-/-6-|---------------|--------|---------6-
B|-------|---------------|--------|-----------
e|-------|---------------|--------|-----------


GUITARRA 1:

E|-------|--------------|-7--7--|-------------
A|-3/--4-|--------------|-9--9--|-------------
D|-5/--6-|--------------|-9--9--|-------------
G|-5/--6-|-6-6--6-6-6-6-|-------|-4-4--4-4-4-4 x3
B|-------|-5-5--5-5-5-5-|-------|-4-4--4-4-4-4
e|-------|-5-5--5-5-5-5-|-------|-4-4--4-4-4-4

DESPUES DE LA 3 VEZ, TERMINA ASI:

E|-------|--------------|
A|-3/--4-|--------------|
D|-5/--6-|--------------|
G|-5/--6-|-6-6--6-6-6-6-|
B|-------|-5-5--5-5-5-5-|
e|-------|-5-5--5-5-5-5-|


VERSO:


GUITARRA 2 (00:21-00:58)

E|-------|--x-x-x-5-5---|-x-x-7-|-x-x-x--7-7-
A|-x-x-4-|--x-x-x-7-7---|-x-x-9-|-x-x-x--9-9-
D|-x-x-6-|--x-x-x-7-7---|-x-x-9-|-x-x-x--9-9-
G|-x-x-6-|--------------|-------|------------
B|-------|--------------|-------|------------
e|-------|--------------|-------|------------


Nos fue tragando la rutina
Fue llenando de vacíos
Fuimos ahogando la palabra
Y explotando en puros líos?


GUITARRA 1 (00:40-00:58)

E|-------------------------------------------
A|-------------------------------------------
D|--------------------------11-----13------13 X2
G|---9---9---9----11--9----9-----11------11--
B|--9---7---7---10---9-9?10----12------12----
e|-9---7---7---9-----------------------------

Te deseo suerte amor
Ya me voy ya lo olvido
Solo le pido a Dios
Darte alivio.

DESPUES DEL VERSO Y ANTES DEL CORO SE TOCA LO QUE SIGUE
 LO SEÑALARE CON UN (*) PUES SE TOCA MÁS ADELANTE:

(*)

GUITARRA 2

E|--2----|-2-2--4-5-----
A|--4----|-4-4--6-7-----
D|--4----|-4-4--6-7-----
G|-------|--------------
B|-------|--------------
e|-------|--------------

GUITARRA 1

E|----------------------
A|----------------------
D|----------------------
G|----------------------
B|--10--10-----12-------
e|----------12----------


Coro.

AQUÍ SE TOCA IGUAL QUE EN EL INTRO

GUITARRA 2 (C#m, A, B, G#m)


E|-------|--5-5--5-5-5-5-|-7--7--|-4-4--4-4-4-4-
A|-3-/-4-|--7-7--7-7-7-7-|-9--9--|-6-6--6-6-6-6-
D|-5-/-6-|--7-7--7-7-7-7-|-9--9--|-6-6--6-6-6-6- X3
G|-5-/-6-|---------------|-------|--------------
B|-------|---------------|-------|--------------
e|-------|---------------|-------|--------------


GUITARRA 1

E|-------|--------------|-7--7--|-------------
A|-3/--4-|--------------|-9--9--|-------------
D|-5/--6-|--------------|-9--9--|------------- X3
G|-5/--6-|-6-6--6-6-6-6-|-------|-4-4--4-4-4-4
B|-------|-5-5--5-5-5-5-|-------|-4-4--4-4-4-4
e|-------|-5-5--5-5-5-5-|-------|-4-4--4-4-4-4

TERMINAN DE LA MISMA MANERA QUE EL INTRO.


   Arde
   Arde el cielo y el dolor
   Arde mi espíritu
   Arde el amor y la luz
   Arde el cielo amor?


VERSO

GUITARRA 2

(1:25-2:02)

E|-------|--x-x-x-5-5---|-x-x-7-|-x-x-x--7-7-
A|-x-x-4-|--x-x-x-7-7---|-x-x-9-|-x-x-x--9-9-
D|-x-x-6-|--x-x-x-7-7---|-x-x-9-|-x-x-x--9-9-
G|-x-x-6-|--------------|-------|------------
B|-------|--------------|-------|------------
e|-------|--------------|-------|------------


GUITARRA 1

(1:25-1:43)

E|-----------------------|
A|-----------------------|
D|-----------------------| x4
G|---------6----8----8---|
B|---5----5----7----7---?|
e|--4-4--5----7----7-----|

Salio el halcón
Salio el demonio
Un infierno, un manicomio
Gritos, violencia, platos rotos
Como ciega la demencia


(1:44-2:02)


E|-------------------------------------------
A|-------------------------------------------
D|--------------------------11-----13------13 X2
G|---9---9---9----11--9----9-----11------11--
B|--9---7---7---10---9-9?10----12------12----
e|-9---7---7---9-----------------------------


Solo yo te pido amor
Que nunca te abandones
Solo le pido a dios,
Darte alivio

SE TOCA (*) COMO YA HABIA SIDO MENCIONADO ARRIBA.


CORO

SE TOCA IGUAL QUE EL INTRO PARA LAS DOS GUITARRAS.


Arde
Arde el cielo y el dolor
Arde mi espíritu
Arde el amor y la luz
Arde el cielo amor
Sangra, sangra el cielo y la luz
Sangra mí espíritu
Arde el amor y la luz
Arde el cielo amor


*SOLO
   (02:46)


GUITARRA 1

E|-2/4-4-4-4-7-7-7------------------------
A|-4/6-6-6-6-9-9-9-9--9--4-4-4-4----------
D|-4/6-6-6-6-9-9-9-11-11-6-6-6-6----------x4
G|-----------------11-11-6-6-6-6----------
B|----------------------------------------
e|----------------------------------------

GUITARRA 2

E|----------------------------------------
A|----------------------------------------
D|----------------------6---6-6~~---------
G|--6^888877776666~~--4---4---------------
B|---------------------------------7b9~~--
e|----------------------------------------


  (Muy rápido)
E|----------------------------------------
A|----------------------------------------
D|--------------------------------6-------
G|------------6--4----------6--4----6^7---
B|-------7--4----------7--4---------------
e|--7--4------------4---------------------


DESPUES DEL SOLO LA GUITARRA 1 SIGUE ESTO:

E|--2--22--4--5----------|
A|--4--44--6--7----------|
D|--4--44--6--7----------|
G|-----------------------|
B|-----------------------|
e|-----------------------|

LA GUITARRA 1 TOCA EL INTRO HASTA EL FINAL DE LA CANCION
Y LA GUITARRA 2 LA ACOMPAÑA HASTA EL MIN. 3:54.

Arde
Arde el cielo y el dolor
Arde mi espíritu
Arde el amor y la luz
Arde el cielo amor
Sangra, sangra el cielo y la luz
Sangra mí espíritu
Arde el amor y la luz
Arde el cielo amor


EN EL MINUTO 3:57 LA GUITARRA 2 EMPIEZA A TOCAR LO QUE SIGUE
CON EL SIGUIENTE TEXTO.
LA GUITARRA 1 SIGUE TOCANDO EL INTRO HASTA EL FINAL.

Trozos del cielo en ardor
Trozos del cielo en ardor
Se esta quemando el cielo yaaaaaaaaa?

E|----------------------------------------------------
A|----------------------------------------------------
D|----------------------------------------------------
G|-6---6---6---4---4--4---6---6---6-------------------
B|---5-------5---5------5---5-------5-4-5-4--4-5------
e|-------7-----------7----------7-----------4---------

E|----------------------------------------------------
A|----------------------------------------------------
D|---------------------------------------------------- X2
G|-6---6---6---4---4---4---6---6---6------------------
B|---5-------5---5---7---5---5-------5-4-5-4---4-5----
e|-------7-----------------------7-----------4--------

~=Vibrato


Bueno aquí les dejo esta canción, la verdad esta muy
facil solamente hay que escuchar bien la cancion para
saber donde van los cambios, cualquier duda o aclaracion
aquí les dejo mi correo:  Saludos
a el exgrupo de 4 ?c? de preparatoria del Salesiano Morelia,
Y tambien saludos para mi amigo Juan Pablo de The Dopplers.
Atte. Miguel Angel Estrada
mhO.
Suggest correction
Give kudos to tab author, rate the tab!
1 2 3 4 5
comments
print report bad tab
guest
You may want to rate the tab now too:
select rating
Wanna post a correction for this tab? Suggest correction