Oops, an error
Loading. Please wait.

Ay Doctor Tab

version 3
version 3

Whole song

by Maná
71 views 1 this week
no commentswrite comment
1 2 3 4 5
3 more votes to show rating
add to favorites
×
Save as Personal and add changes to this tab that will be seen only by you. Learn more ›
×
You can save this tab as Personal to edit and correct it or add notes. All changes will be seen only by you. Learn more »
save as personal
new!
launch autoscroll
font size
0
reset
how to read this tab
guitar tuner
Autoscroll
slow
fast
+/-
esc
set tempo
stop
Author
Unregistered
Pues esta es mi favorita de Revolucion de Amor, tiene buena letra y 
buenos arreglos, muy al estilo de Mana. Basicamente en los versos se
toca los riffs y no estoy muy seguro acerca de los acordes porque no 
soy de los transcriptores que saca acordes, solo tabs. Bueno, aqui esta:


Riff 1:

1. ---------------|-------------------|
2. ---------------|-------------------|
3. ---------------|-------------------|
4. -----4-4-4-----|-----4-4-4-6/7\6-4-|
5. -5-7-------5-7-|-5-7---------------|
6. ---------------|-------------------|

Riff 2:

1. ------------------------------|
2. ------------------------------|
3. ------------------------------|
4. -x------------x-x-------------|
5. -x-7-7-7-7/9--x-x-2-5-2/4-2p0-|
6. ------------------------------|

Riff 3:

1. -x-x--x-x--x-x------------|-x-x--x-x--x-x--3---------|
2. -x-x--x-x--x-x--3---3-1-3-|-x-x--x-x--x-x----3---3-1-|
3. -x-x--x-x--x-x----2-------|-x-x--x-x--x-x------2-----|
4. --------------------------|--------------------------|
5. --------------------------|--------------------------|
6. --------------------------|--------------------------|

Riff 4:

1. -------5b-------7b---------5-5---------|
2. -5-3-5----5-3-5----5-5-3-5-----5-3-5b--|
3. ---------------------------------------|
4. ---------------------------------------|
5. ---------------------------------------|
6. ---------------------------------------|

-------------------------------------------------------------------------

Intro:

1. --------------------|----------------------|-----|-14-12-14---14-14-14-| 
2. --------------------|----------------------|-----|-14-12-14---14-14-14-| 
3. ---6----------------|---6-------6-6/7\6-6~-|-----|-14-13-14---14-14-14-|  
4. 
Suggest correction
Give kudos to tab author, rate the tab!
1 2 3 4 5
comments
print report bad tab
guest
Wanna post a correction for this tab? Suggest correction