Oops, an error
Loading. Please wait.

Ay Doctor Bass Tab

version 2
version 2

Whole song

57 views 1 this week
no commentswrite comment
1 2 3 4 5
3 more votes to show rating
add to favorites
launch autoscroll
font size
0
reset
guitar tuner
Autoscroll
slow
fast
+/-
esc
set tempo
stop
Help us to improve Ultimate-Guitar.com Take our survey!
×
Intro/Verso:

G|--------------------------------------|  24X
D|----2-444---2------2-444/7-4----------|
A|-4--------5------4--------------------|
E|--------------------------------------|

Coro:

G|--------------------------------------|
D|----222/4-----222/4-------------------|
A|-----------00--------22-000-2-----2-0-|
E|-22---------------------------22------|

G|--------------------------------------|
D|----222/4-----222/4-------------------|
A|-----------00-------22-0222-2222-2222-|
E|-22-----------------------------------|

Puente:

G|--------------------------------------|
D|--------------------------------------|
A|--------------------2-0---------------| x4
E|-2222--2222--2222---------------------|

Puente 2:

G|--------------------------------------|
D|--------------------------------------|
A|-0/2--2-0-----------------------------|
E|-----------2-0------------------------|

G|--------------------------------------|
D|----222/4-----222-------222/4----22---|
A|------------------2-----------------4-|
E|-22-------22---------22-------22------|

G|-----------------------------------------------|
D|-----------------------------------------------|
A|-555-55-55-5--222-22-22-2--------------------2-| x3
E|--------------------------222-2-22 2-22-2-22---|

G|--------------------------------------|
D|--------------------------------------|
A|--44444444----------------------------|
E|--------------------------------------|

REPETIR: Coro

Final:

G|--------------------------------------|
D|----22-2-4----------------------------|
A|--------------22-2-0------------------|
E|-22--------22-------------------------|

repetir asta ke se akaba
Suggest correction
Give kudos to tab author, rate the tab!
1 2 3 4 5
comments
print report bad tab
guest
You may want to rate the tab now too:
select rating
Wanna post a correction for this tab? Suggest correction