Oops, an error
Loading. Please wait.

Bendita Tu Luz Tab

version 4
version 4

Interactive

186 views 1 this week
no commentswrite comment
1 2 3 4 5
3 more votes to show rating
add to favorites
launch autoscroll
font size
0
reset
how to read this tab
guitar tuner
×
Best way to learn
"Bendita Tu Luz"
Autoscroll
slow
fast
+/-
esc
set tempo
stop
---\    G         D/F#        Em         C          D
  E|----------|----------|----------|----------|----------|
  B|-----3----|-----3----|----------|-----1----|-------3--|
  G|------0---|------2---|------0---|----------|----------|
  D|----0-----|----0-----|-----2----|----2-----|------0---|
  A|----------|----------|----2-----|---3------|-----0----|
  E|---3------|---2------|---0------|----------|----------|
---/


---\    G         D/F#        Em         C          D
  E|----------|----------|----------|----------|----------|
  B|-----3----|-----3----|----------|-----1----|-------3--|
  G|------0---|------2---|------0---|----------|----------|
  D|----0-----|----0-----|-----2----|----2-----|------0---|
  A|----------|----------|----2-----|---3------|-----0----|
  E|---3------|---2------|---0------|----------|----------|
---/
           bendito el lugar     y el motivo de estar ahí
---\
  E|------------|--------------|--------------------------
  B|-----3------|------------3-|--------------------------
  G|------0-----|-------------2|--------------------------
  D|----0-------|-----------0--|--------------------------
  A|------------|--------------|--------------------------
  E|---3--------|----------2---|--------------------------
---/

           bendita la coincidencia
---\
  E|----------|-----------------------|----------|
  B|----------|----------------------1|-----3----|
  G|------0---|-----------------------|----------|
  D|-----2----|---------------------2-|----0-----|
  A|----2-----|-----------------------|---0------|
  E|---0------|--------------------3--|----------|
---/


           bendito el reloj     que nos puso puntual ahí
---\
  E|------------|---------------|--------------------------
  B|-----3------|-------------3-|--------------------------
  G|------0-----|--------------2|--------------------------
  D|----0-------|------------0--|--------------------------
  A|------------|---------------|--------------------------
  E|---3--------|-----------2---|--------------------------
---/

           bendita sea tu presencia
---\
  E|----------|------------------------|----------|
  B|----------|-----------------------1|-----3----|
  G|------0---|------------------------|----------|
  D|-----2----|----------------------2-|----0-----|
  A|----2-----|------------------------|---0------|
  E|---0------|---------------------3--|----------|
---/
Suggest correction
Give kudos to tab author, rate the tab!
1 2 3 4 5
comments
print report bad tab
guest
You may want to rate the tab now too:
select rating
Wanna post a correction for this tab? Suggest correction