Oops, an error
Loading. Please wait.

Bendita Tu Luz Bass Tab

version 1
version 1

Whole song

Interactive

229 views 6 this week
no commentswrite comment
1 2 3 4 5
3 more votes to show rating
add to favorites
launch autoscroll
font size
0
reset
guitar tuner
×
Best way to learn
"Bendita Tu Luz"
Autoscroll
slow
fast
+/-
esc
set tempo
stop
Aca les va esta cancion tan linda de mana
los bajos empiezan en...
Bendito el reloj
E|--3-|-2-|-0-|-----|-3-|-02-|-0-|-------|
A|----|---|---|-3-5-|---|----|---|-3-55--|
D|----|---|---|-----|---|----|---|-------|
G|----|---|---|-----|---|----|---|-------|

...Bendito Dios...
E|--------|---------|---33--|-3-2-0-5---|
A|--7---7-|-5----5--|-3---3-|--------5--|
D|----99--|---0h4---|-------|-----------|
G|--------|---------|-------|-----------|

...y de quitarme...
E|--------|---------|---33--|-------|
A|--7---7-|-5-----5-|-3---3-|-5-55--|
D|----99--|---0h4---|-------|-------|
G|--------|---------|-------|-------|

Bendita la luz
E|--3----------|---|----|-----|------|
A|----2-3-5-00-|-0-|----|-0-3-|-355--|x2
D|-------------|---|-22-|-----|------|
G|-------------|---|----|-----|------|

desde el alma
E|--3-3-|-2-|-0-|-----|-3-|-2-|-0-|-------|
A|------|---|---|-3-5-|---|---|---|-3-55--|
D|------|---|---|-----|---|---|---|-------|
G|------|---|---|-----|---|---|---|-------|

Benditos ojos
E|--3-----|-2------|-0-----|----------|
A|----2-5-|---00-5-|---2-5-|-3-5-3h5--|
D|--------|--------|-------|----------|
G|--------|--------|-------|----------|

y de repente
E|--3-----|-2------|-0-----|---------|
A|----2-5-|---00-5-|---2-5-|-3-5555--|
D|--------|--------|-------|---------|
G|--------|--------|-------|---------|

Bendito Dios
E|--0------|---55--|---33--|-3-2-0-5----|
A|----22---|-5---5-|-3---3-|---------5--|
D|-------2-|-------|-------|------------|
G|---------|-------|-------|------------|

y de quitarme
E|--0000---|---55--|---33--|--------|
A|-------2-|-5---5-|-3---3-|-5-555--|
D|---------|-------|-------|--------|
G|---------|-------|-------|--------|

Bendita la luz
E|--3----------|---|----|-----|------|
A|----2-3-5-00-|-0-|----|-0-3-|-355--|x2
D|-------------|---|-22-|-----|------|
G|-------------|---|----|-----|------|

gloria divina
      x2       x2       x2       x2
E|--3------|-2------|-1------|---------|
A|----22-5-|---00-5-|---00-3-|-0-33----|
D|---------|--------|--------|------2--|
G|---------|--------|--------|---------|

Gloria al cielo
     x2
E|----55--|-3-----|-0-33--|------|---22-|-0-00--|-333333--|
A|--5---5-|---2-5-|-----2-|-0-00-|-2----|-----2-|---------|
D|--------|-------|-------|------|------|-------|---------|
G|--------|-------|-------|------|------|-------|---------|

durante el solo de la guitarra
E|--3-----|---55--|-5-005-|---|------|
A|----2-5-|-5---5-|-------|-3-|-355--|x2
D|--------|-------|-------|---|------|
G|--------|-------|-------|---|------|

Bendita la luz
E|--3----------|---|----|-----|------|
A|----2-3-5-00-|-0-|----|-0-3-|-355--|x7
D|-------------|---|-22-|-----|------|
G|-------------|---|----|-----|------|

amor
E|--3--|
A|-----|
D|-----|
G|-----|

"bendito dios por encontrarte
en el camino
y quitarme esta soledad
de mi destino"

atte. miauricio gatolar
Suggest correction
Give kudos to tab author, rate the tab!
1 2 3 4 5
comments
print report bad tab
guest
You may want to rate the tab now too:
select rating
Wanna post a correction for this tab? Suggest correction