Oops, an error
Loading. Please wait.

Bendita Tu Luz Tab

version 7
version 7

Interactive

72 views 3 this week
no commentswrite comment
1 2 3 4 5
3 more votes to show rating
add to favorites
launch autoscroll
font size
0
reset
how to read this tab
guitar tuner
Autoscroll
slow
fast
+/-
esc
set tempo
stop
Help us to improve Ultimate-Guitar.com Take our survey!
×
Aca les va de nuevo esta cancion,
ahora esta corregida un pokito
cualquier duda a mi correo ,
Espero de nuevo les guste ,gracias.


INTRO

e-----------|-----------|-------------|---------------------|
B------3----|------3----|------3------|----------1----------|
G--------0--|--------2--|-------0-----|-----0------0--------|
D----0------|----0------|----4--------|----2---4-4-0--------|
A-----------|-----------|---2---------|--3----5-------------|
E--3--------|--2--------|-------------|---------------------|


e-----------|-----------|-------------|---------------------|
B------3----|------3----|------3------|-----------1---------|
G--------0--|--------2--|----0--------|-----0-------0-------|
D----0------|----0------|---4---------|---2-----4-4-0-------|
A-----------|-----------|--2----------|--3-----5------------|
E--3--------|--2--------|-------------|---------------------|


e-----------|-----------|-------------|---------------------|
B------3----|------3----|------3------|-----------1---------|
G-----0-----|-----2-----|----0--------|-----0-------0-------|
D----0------|----0------|---4---------|---2-----4-4-0-------|
A-----------|-----------|--2----------|--3-----5------------|
E--3--------|--2--------|-------------|---------------------|

        Bendito el lugar    y el motivo de estar ahí


e-----------|-----------|--------0------|---------------------|
B------3----|------3----|------3--3-----|-----------1---------|
G-----0-----|-----2-----|----0-0---0----|-----0-------0-------|
D----0------|----0------|---4-----------|---2-----4-4-0-------|
A-----------|-----------|--2------------|--3-----5------------|
E--3--------|--2--------|---------------|---------------------|

           Bendita la coincidencia....


e--3----3-----|0----0-2-----|0------0------|----------------|
B--3----3-----|3----3-3-----|3----3--3-----|----------1-----|
G--0--0-0-----|2--2-2-2-----|0--0-----0----|----0-------0---|
D--0-0--------|0-0----------|4-4-----------|--2-----4-4-0---|
A--2----------|0------------|2-------------|-3-----5--------|
E--3----------|2------------|--------------|----------------|


         Bendito el reloj que nos puso puntual, ahí ....


e--3----3-----|0----0-2------|0-----0------|----------------|
B--3----3-----|3----3-3-3----|3----3--3----|----------------|
G--0--0-0-----|2--2-2-2--2---|0--0-----0---|----0-----0-----|
D--0-0--------|0-0-----------|4-4----------|--2-----4-4-----|
A--2----------|0-------------|2------------|-3-----5--------|
E--3----------|2-------------|-------------|----------------|


          Bendita  sea  tuuu   presencia ....


Em       D             C      G
Bendito Dios por encontrarnos en el camino
Em             D        C         D
Y de quitarme esta soledad de mí destino


CORO
            G   D
Bendita la luz
            Am          C
Bendita la luz de tu mirada
            G   D
Bendita la luz
            Am          C                G
Bendita la luz de tu mirada desde el alma


Primer Solo Guitarra:

 G          D   Em          C   D        G
e-----3-----2--|--0-0-0-2-3-5-3-5-7-8-10-7v-----|
B--------------|--------------------------------|
G-2/4---4/2----|--0-0-0-2-4-5-4-5-7-------------|
D--------------|--------------------------------|
A--------------|--------------------------------|
E--------------|--------------------------------|

                       D             Em            C    D   G
e--7-8-10-7-8-10-10/12-10v---|-----7-5-5v-7-3v-5-2-------------|
B----------------------------|-----8-7-7v-8-5v-7-3-5-8v-7-5-3--|
G----------------------------|---7-----------------5-9v-7-5-4--|
D----------------------------|---------------------------------|
A----------------------------|---------------------------------|
E----------------------------|---------------------------------|


G               D
Benditos ojos que me esquivaban,
Em           D
Simulaban desdén que me ignoraba,
G             D
Y de repente sostienes la mirada,
Em           C
Di ran di ge rum  de re re


Em       D             C      G
Bendito Dios por encontrarnos en el camino,
Em             D        C         D
Y de quitarme esta soledad de mí destino


Coro

              G   D              Am          C
Bendita la luz     Bendita la luz de tu mirada
            G   D              Am            C
Bendita la luz     Bendita la luz de tu mirada oh?


G                       D
Gloria divina de esta suerte, del Buen Tino
Am                           C             D
De encontrarte justo ahí, en medio del camino.
Am                C               G
Gloria al cielo de encontrarte ahora,
Em                  Am
 llevarte mi soledad

D                      Em  C           G
Y coincidir en mi destino, en el mismo destino?


Segundo Solo de Guitarra :

 G              D                Am          C    D
e------------------------------|-----------------------------------------|
B------------------------------|----------5-8-7-10--10-8/-7/-5/-3--------|
G-------4-7-5-4h5p4------------|-----4-5-7---------9--9/-7/-5/-4---------|
D---0-5-------------7-7--------|-5/7-------------------------------------|
A------------------------------|-----------------------------------------|
E------------------------------|-----------------------------------------|

  G           D           Am     C
e--------7-5-3-3-------5-|------------5---5-7-------|
B-3-1-0--8-7-5-5-7-5h7---|-5-7-8--7-8---8-----------|
G-4-2-0----------7-------|--------------------------|
D------------------------|--------------------------|
A------------------------|--------------------------|
E------------------------|--------------------------|

   D
e--5-7-8-7-5-----------------------|
B-8----------8-10-8-7-5-7-5--------|
G---------------------------7-5-7--|
D----------------------------------|
A----------------------------------|
E----------------------------------|


            G   D              Am          C
Bendita la luz     Bendita la luz de tu mirada
            G   D              Am          C
Bendita la luz     Bendita la luz de tu mirada
            G   D             Am           C
Bendita mirada oh  Bendita mirada desde el alma
        G   D
Tu mirada oh oh  (Bendita bendita bendita mirada
 Am                 C
Bendita tu alma y bendita tu luz)
        G     D                Am
Tu mirada oh oh  (Oh no no digo es
              C
tan bendita tu luz amor amor)
        G     D
Tu mirada oh oh (Bendito el reloj y bendito el lugar
Am                      C
Benditos tus besos cerquita del mar!)


        G       D
Tu mirada oh oh
          Am                 C               G
(Amor amor que bendita tu mirada tu mirada amor)


Espero nuevamente les guste .
Suggest correction
Give kudos to tab author, rate the tab!
1 2 3 4 5
comments
print report bad tab
guest
You may want to rate the tab now too:
select rating
Wanna post a correction for this tab? Suggest correction