Oops, an error
Loading. Please wait.

Bendita Tu Luz Tab

version 8
version 8

Interactive

by Maná
170 views 1 this week
no commentswrite comment
1 2 3 4 5
3 more votes to show rating
add to favorites
×
Save as Personal and add changes to this tab that will be seen only by you. Learn more ›
×
You can save this tab as Personal to edit and correct it or add notes. All changes will be seen only by you. Learn more »
save as personal
new!
launch autoscroll
font size
0
reset
how to read this tab
guitar tuner
Autoscroll
slow
fast
+/-
esc
set tempo
stop
HOLA SOY GEORGE (coco) AQUI LES TRAIGO DE NUEVO OTRA CANCION
ESTA ES LA VERSION MAS COMPLETA DE ESTE GRAN TEMA
******************************************************
Una de Las canciones escuchadas del último album de Maná
"Amar es Combatir" Saludos al Grupo Brads!!
y A [ch]A[/ch] Promo del  2006... que son Siempre los Mejores!!
Y sin mas palabras ahi les dejo esta grandiosa canción...
******************************************************

MODIFICACIÓN DEL INTRO:
Jassiel(jassiel_eladicto@
***EL INTRO ESTÁ EXACTA Y TOTALMENTE ORIGINAL A COMO LA TOCA MANÁ***
DISFRUTENLA!!!
INTRO:

e|-----------|-----------|-----------|--------------|
B|------3----|------3----|------3----|---------1----|
G|--------0--|--------2--|--------0--|----0------0--|
D|----0------|----0------|----4------|---2---4-4----|
A|-----------|-----------|-----------|--3---5-------|
E|--3--------|--2--------|--0--------|--------------|

e|-----------|-----------|-----------|--------------|
B|------3----|------3----|--------3--|---------1----|
G|--------0--|--------2--|------0-0--|----0------0--|
D|----0------|----0------|----4------|---2---4-4----|
A|-----------|-----------|--2--------|--3---5-------|
E|--3--------|--2--------|-----------|--------------|

e|-----------|-----------|-----------|--------------|
B|--------3--|--------3--|--------3--|---------1----|
G|------0----|------2----|------0-0--|----0------0--|
D|----0------|----0------|----4------|---2---4-4----|
A|-----------|-----------|--2--------|--3---5-------|
E|--3--------|--2--------|-----------|--------------|
            Bendito el lugar...     Y el motivo de estar ahí...

e|-----------|-----------|----------0----|--------------|
B|--------3--|--------3--|--------3--3---|---------1----|
G|------0----|------2----|------0-0---0--|----0------0--|
D|----0------|----0------|----4----------|---2---4-4----|
A|-----------|-----------|---------------|--3---5-------|
E|--3--------|--2--------|--0------------|--------------|
            Bendita la coincidencia...

e|--------3--|----------2------|-----------|-----------|
B|--------3--|--------3---3----|--------3--|-----------|
G|------0----|------2-------2--|------0-0--|----0---0--|
D|----0------|----0------------|----4------|---2---4---|
A|-----------|-----------------|--2--------|--3---5----|
E|--3--------|--2--------------|-----------|-----------|
            Bendito el reloj?             Que nos puso puntual ahí?

e|--------3--|----------2------|----------0----|-----------|
B|--------3--|--------3---3----|--------3--3---|-----------|
G|------0----|------2-------2--|------0-0---0--|----0---0--|
D|----0------|----0------------|----4----------|---2---4---|
A|-----------|-----------------|--2------------|--3---5----|
E|--3--------|--2--------------|---------------|-----------|
            Bendita sea tu presencia?


PRE-CORO

Em      Bm             C        D      Dsus            Dsus = xx0233
Bendito Dios por encontrarnos en el camino
Em            Bm          C         D    Dsus
y de quitarme esta soledad de mi destino.


           G      D           Am       C       D
Bendita la luuuuuuz, bendita la luz de tu mirada
           G      D           Am        C     D
Bendita la luuuuuuz, bendita la luz de tu mirada
           G
desde el alma.


Primer Solo Guitarra:

 G          D   Em          C   D        G
I-----3-----2--|--0-0-0-2-3-5-3-5-7-8-10-7v-----|
I--------------|--------------------------------|
I-2/4---4/2----|--0-0-0-2-4-5-4-5-7-------------|
I--------------|--------------------------------|
I--------------|--------------------------------|
I--------------|--------------------------------|

                       D             Em            C    D   G
I--7-8-10-7-8-10-10/12-10v---|-----7-5-5v-7-3v-5-2-------------|
I----------------------------|-----8-7-7v-8-5v-7-3-5-8v-7-5-3--|
I----------------------------|---7-----------------5-9v-7-5-4--|
I----------------------------|---------------------------------|
I----------------------------|---------------------------------|
I----------------------------|---------------------------------|


G            D
Benditos ojos que me esquivaban
Em           C      D            G
simulaban desde que me ignoraban
             D
y de repente sostienes la mirada,

Em        C     D
daramdiri daramdiriri


Em       Bm             C       D      Dsus
Bendito Dios por encontrarnos en el camino
Em            Bm        C         D     Dsus
y de quitarme esta soledad de mi destino.


                                   I-7-8-10-7-8-10-8-10-10/12-10v--I
                                   I-------------------------------I
                                   I-------------------------------I
                                   I-------------------------------I


           G      D           Am         C    D
Bendita la luuuuuuz, bendita la luz de tu mirada
           G       D           Am          C     D
Bendita la luuuuuuz, bendita la luz de tu mirada oh ohh


(Aca usa arpegios con estos acordes,mientras otra guitarra acompaña)

          G                    D
        Gloria divina diste suerte de buen tino

I------------------------I----------------------I
I--------0---------------I--------3-------------I
I------0-----------------I------2---------------I
I----0-------------------I----0-----------------I
I------------------------I----------------------I
I--3---------------------I--2-------------------I
F                             Am
y de encontrarte justo ahi en medio del camino

I------------------------I--------------------------I
I----------1-------------I--------1-----------1-----I
I--------2---------------I------2---------2-----2---I
I------3-----------------I----2---------2---2-----2-I
I----3-------------------I--0---------0-------------I
I--1---------------------I--------------------------I

D                              G      Em            B7
Gloria al cielo de encontarte ahora llevarte mi soledad

I------------------------I-----------I---------I--------------I
I--------3---------------I--------0--I-------0-I--------0-----I
I------2-----------------I------0----I-----0---I------2---2---I
I----0-------------------I----0------I---2-----I----1-------1-I
I------------------------I-----------I---------I--2-----------I
I--2---------------------I--3--------I-0-------I--------------I
                    Em    D               G
y coincidir en mi destino   en el mismo destino

                I---------------------I
                I---------------------I
                I---------------------I
                I--------2------------I
                I----2------2---2-----I
                I--0---0------0-------I


Segundo Solo Guitarra (Tal vez algo más complicado que el solo anterior):
G - D - Am - C - D

  G              D                Am          C    D
E------------------------------|-----------------------------------------|
B------------------------------|----------5-8-7-10--10-8/-7/-5/-3--------|
G-------4-7-5-4h5p4------------|-----4-5-7---------9--9/-7/-5/-4---------|
D---0-5-------------7v-7/0-----|-5/7-------------------------------------|
A------------------------------|-----------------------------------------|
E------------------------------|-----------------------------------------|

  G           D           Am     C
E--------7-5-3-3---5h7-5-|--------------------------|
B-3-1-0--8-7-5-5-7-------|-5-7-8--7-8-10--8-10-12---|
G-4-2-0----------7-------|--------------------------|
D------------------------|--------------------------|
A------------------------|--------------------------|
E------------------------|--------------------------|

   D
E--5-7-8-7-5-----------------------|
B-8----------8-10-8-7-5-7-5--------|
G---------------------------7-5-7--|
D----------------------------------|
A----------------------------------|
E----------------------------------|


           G      D           Am        C     D
Bendita la luuuuuuz, bendita la luz de tu mirada
           G      D           Am        C     D
Bendita la luuuuuuz, bendita la luz de tu mirada

          G       D           Am          C     D
Bendita mirada oh oh oh, bendita mirada desde el alma

    G       D
Tu mirada oh oh
Bendita bendita bendita mirada
 Am                 C         D
Bendita tu alma y bendita tu luz

|--0-0-0-2-3-5-3-5-7-8-10-7v-----|
|--------------------------------|
|--0-0-0-2-4-5-4-5-7-------------|
|--------------------------------|

 G       D
Tu mirada oh oh
                Am                C    D
Ho ho ho digo es tan bendita tu luz amor amor

       I--2-3-5-5v-7-3v-5-2---------
       I--3-5-7-7V-8-5v-7-3-5-8v----
       I--------------------5-9v----

      G       D
Tu mirada oh oh
Bendito el reloj y bendito el lugar

Am                      C      D
benditos tus besos cerquita del mar

  |--0-0-0-2-3-5-3-5-7-8-10-7v-----|
  |--------------------------------|
  |--0-0-0-2-4-5-4-5-7-------------|
  |--------------------------------|

      G       D
Tu mirada oh oh
          Am                 C         D     G
amor amor que bendita tu mirada tu mirada amor

Casi toda la canción es arpegiada y algunos arreglos,
SOLO TOQUEN JUNTO AL CD Y NOTARAN LOS RITMOS DE LOS ARPEGIOS
ESPERO QUE LES HAYA SERVIDO...
Por favor, los errores son bien aceptados lewis712@
y si es posible que la saquen aun mejor, excelente: X)
I-------------------I
I---------B---------I
I---T------R--------I
I-----H-----A-------I
I-------E----D------I
I-------------S-----I
I-------------------I...
Suggest correction
Give kudos to tab author, rate the tab!
1 2 3 4 5
comments
print report bad tab
guest
Wanna post a correction for this tab? Suggest correction