Oops, an error
Loading. Please wait.

Cachito Tab

version 3
version 3

Whole song

Interactive

by Maná
88 views 1 this week
no commentswrite comment
1 2 3 4 5
2 more votes to show rating
add to favorites
launch autoscroll
font size
0
reset
how to read this tab
guitar tuner
×
Best way to learn
"Cachito"
Autoscroll
slow
fast
+/-
esc
set tempo
stop
HOLA QUERIDOS AMIGOS ME DIRIJO A USTEDES CON EL 
MOTIVO DE DEJARLES ESTA EXELENTE ROLA DE MANA
 (ESTA SE OYE IGUALITA A LA ORIGINAL Y PARA MI SON
SUS TONOS ORIGINALES ESCUCHENLA BIEN Y SABRAN QUE NO
ME EQUIVOCO SE LAS VOY A DEJAR BIEN COMPLETA
LES DEJO EN TAB PARA BAJO,LA TABLATURA , SUS ACORDES
 BUENO VASTA DE CHARLAS Y AHI LES VA.
____________________________________________________
EMPIEZA EL BAJO:

G----------------------------------
D--2--3-2--------------------------
A---------5--3--2--0--2-0--2-0-2---
E----------------------------------

LUEGO GUITARRA CON LOS SIGUIENTES ACORDES:
(C F G) Y LO ACOMPAÑA EN BAJO DE LA SIGUIENTE MANERA:

      C
G-------------------------
D----2-2------------------
A--3-----3----------------
E-------------------------

      F
G----2--2----------------
D--3-------3-------------
A------------------------
E------------------------

MIENTRAS UNA GUITARRA PUNTEA DE LA SIGUIENTE MANERA:
    e|----------------------|---|
    B|----------------------|---|
    G|----------------------|---|
    D|-2-3-2----------------|---|
    A|-------5-3-2------2-5-3~--|
    E|-------------3--3---------|
       F       G    C-C*-C     F       G
  e|----1----3--|         e|----1----3--|
  B|---2---3----|         B|---2---3----|
  G|--3---------|         G|--3---------|
  D|------------|         D|------------|
  A|------------|         A|------------|
  E|------------|         E|------------|

VESOS:

C                               F
 Tan solo un adicto, un adicto de tu sol
         C                                  F
 y es que con solo un cachito, un pedasito de tu luz
      C                 Em
 yo llegaria al cielo o me caeria al suelo
      F
 por ti mi amor, oh oh.

       G          C                       F
 Coro   Tan solo, un cachito de tu corazon
            G       C
        ay ay ay, eoh
                           F    G
        un adicto de tu corazon

        oh oh, eoh
        C                      F
        un cachito de tu corazon
            G       C
        ay ay ay, eoh
                               F    G
        soy un adicto de tu corazon

INTRO:(SE REPITE EL INTRO CON BAJO PUNTEO Y LOS MISMOS
ACORDES)


Pedirle a mi cabeza, que deje de pensar en ti
es casi como pecirle, a mi corazon
que deje de latir, mas bien olvida eso
no, no repitas eso, te pido amor...

CORO:
Un cachito de tu corazon...

EL SOLO ES DE LA SIGUIENTE MANERA:
  C               F                G            C
e|--5-5-5-3-3-1-1-0-1-------3-----5------7~~---8--7--|
B|--6-6-6-5-5-3-3-1-3---3/5---5/6---6/8--------------|
G|---------------------------------------------------|
D|---------------------------------------------------|
A|---------------------------------------------------|
E|---------------------------------------------------|
                F         G     C
  e|--8-7-3-0---8-7-1---8-8-7-5-3-1-0--|
  B|--8-8-5-1---8-8-3---8-8-8-8-5-3-1--|
  G|-----------------------------------|
  D|-----------------------------------|
  A|-----------------------------------|
  E|-----------------------------------|
    C   F   C   F   G


        C
    e|--8-8-8-8-8--8-8-8-8--8-8-8-8-8-8--8-7-5-7--|X2
    B|--8-8-8-8-8--8-8-8-8--8-8-8-8-8-8--8-8-8-8--|
    G|--7-7-7-7-7--7-7-7-7--7-7-7-7-7-7-----------|
    D|--------------------------------------------|
    A|--------------------------------------------|
    E|--------------------------------------------|
 ESTE ES EL FINAL
   e|-|---------|---------0--|
   B|-|---------|---------1--|
   G|-|---------|---------0--|
   D|-2-3-2-----|---------2--|
   A|-------5-3-2-----2-5-3--|
   E|-------------3-3--------|

PEQUEÑITA DE MI CORAZON...X4
*****************************************************
BUENO ESO ESTODO ESPERO QUE LES HAYA GUSTADO
CUALQUIER DUDA O COMENTARIO MANDENME UN MAIL A:
LEANDRO_ATAME@ GRACIAS POR TODO
FUE UN GUSTO LeAnDro!!!!
 un beso enorme para la chica que mas amo
cecilia Te AmO!!!
Suggest correction
Give kudos to tab author, rate the tab!
1 2 3 4 5
comments
print report bad tab
guest
You may want to rate the tab now too:
select rating
Wanna post a correction for this tab? Suggest correction