Oops, an error
Loading. Please wait.

Cachito (Unplugged) Tab

version 1
version 1

Whole song

37 views 1 this week
no commentswrite comment
1 2 3 4 5
3 more votes to show rating
add to favorites
launch autoscroll
font size
0
reset
how to read this tab
guitar tuner
×
Best way to learn
"Cachito (unplugged)"
Autoscroll
slow
fast
+/-
esc
set tempo
stop
En esta cancion hay una variación de el acorde C y es de esta forma:

e|--1--| No sé como se llama pero lo llamaremos  C*
B|--1--|
G|--0--|
D|--2--|
A|--3--|
E|-----|

Riffs:

riff1                 riff2                 
e|-0--1-----1/3--1--0--|-0--1~~--0-0-0-0-1-0-|
B|---------------------|---------------------|
G|---------------------|---------------------|
D|---------------------|---------------------|
A|---------------------|---------------------|
E|---------------------|---------------------|

riff3         riff4      
e|-3--5--3-3-3-|-5--3-3-3-|
B|-------------|----------|
G|-------------|----------|
D|-------------|----------|
A|-------------|----------|
E|-------------|----------|

Intro:
                        C-C*-C   
e|----------------------|---|   
B|----------------------|---|   
G|----------------------|---|   
D|-2-3-2----------------|---|   
A|-------5-3-2------2-5-3~--|   
E|-------------3--3---------|   

   F       G    C-C*-C     F       G
e|----1----3--|         e|----1----3--|
B|---2---3----|         B|---2---3----|
G|--3---------|         G|--3---------|
D|------------|         D|------------|
A|------------|         A|------------|
E|------------|         E|------------|


C                             F
Tan solo un adicto, un adicto de tu sol   [riff1]
          C                                
y es que con solo un cachito, 
            F
un pedasito de tu luz   [riff2]
       C               Em          
yo llegaria al cielo o me caeria al suelo
             F    G
por ti mi amor......tan solo
       
       
       C              F    G
Un cachito de tu corazon    [riff3]
                  
C                   F     G
un cachito de tu corazon  
 
C                      F    G
un cachito de tu corazon    [riff4]
                
C                      F    G
soy un adicto de tu corazon


C-C*-C        F              C-C*-C  
          e|--3/5--5-5-5-5~--|       
          B|-----------------|       
          G|-----------------|       
          D|-----------------|       
          A|-----------------|       
          E|-----------------|       

   F       G         C
|--¦-------¦---------¦---| 
|--¦-------¦---------¦---|
|--¦-------¦---------¦---|
|--3-2-----¦---------¦---|
|------5-3-2-----2-5-3~--|
|------------3-3---------|

C                                    F
Pedirle a mi cabeza, que deje de pensar en ti
C
es casi como pedirle, a mi corazon
      F                             
que deje de latir,(riff2) 
      C
mas bien olvida eso 
  Em                           
no, no repitas eso, 
           F   G
te pido amor......tan solo.


       C              F    G
Un cachito de tu corazon    [riff3]
                  
C                   F     G
un cachito de tu corazon  [riff4]
 
C                      F    G
un cachito de tu corazon
                
C                      F    G
soy un adicto de tu corazon
 
SOLO:

    C               F                G            C 
e|--5-5-5-3-3-1-1-0-1-------3-----5------7~~---8--7--|
B|--6-6-6-5-5-3-3-1-3---3/5---5/6---6/8--------------|
G|---------------------------------------------------|
D|---------------------------------------------------|
A|---------------------------------------------------|
E|---------------------------------------------------|

            F         G     C
e|--8-7-3-0---8-7-1---8-8-7-5-3-1-0--|
B|--8-8-5-1---8-8-3---8-8-8-8-5-3-1--|
G|-----------------------------------|
D|-----------------------------------|
A|-----------------------------------|
E|-----------------------------------|

C   F   C   F   G


    C
e|--8-8-8-8-8--8-8-8-8--8-8-8-8-8-8--8-7-5-7--|  X2 
B|--8-8-8-8-8--8-8-8-8--8-8-8-8-8-8--8-8-8-8--|  
G|--7-7-7-7-7--7-7-7-7--7-7-7-7-7-7-----------|  
D|--------------------------------------------|  
A|--------------------------------------------|  
E|--------------------------------------------| 
 


   C                 F   G
Pequeñita de mi corazon 
   C                 F   G
Pequeñita de mi corazon 
   C                 F   G
Pequeñita de mi corazon 
   C                 F   G
Pequeñita de mi corazon 

SOLO TROMPETA:

C   F  G   X 4


Final
C-C*-C   F  G   C-C*-C     F         G         C
                    e|-|---------|---------0--|
                    B|-|---------|---------1--|
                       G|-|---------|---------0--|
                    D|-2-3-2-----|---------2--|
                    A|-------5-3-2-----2-5-3--|
                    E|-------------3-3--------|


Tal vez tenga muchos errores, especialmente en el solo
pero se acerca mucho a la canción.
Suggest correction
Give kudos to tab author, rate the tab!
1 2 3 4 5
comments
print report bad tab
guest
You may want to rate the tab now too:
select rating
Wanna post a correction for this tab? Suggest correction