Oops, an error
Loading. Please wait.

Cachito (Unplugged) Bass

by Maná
71 views 1 this week
no commentswrite comment
1 2 3 4 5
3 more votes to show rating
add to favorites
launch autoscroll
font size
0
reset
guitar tuner
×
Best way to learn
"Cachito (unplugged)"
Autoscroll
slow
fast
+/-
esc
set tempo
stop
Q ONDA,BUENO AHI LES MANDO ESTA TAB PARA BAJO ESTA CHIDA,
SOLO ESCUCHENLA BIEN PARA QUE NOTEN LOS CAMBIOS DE CADA TONO. 
SE LA QUIERO DEDICAR A GABY QUE LA QUIERO MUCHO 
Y ES UNA PERSONA MUY ESPECIAL E IMPORTANTE PARA MI. :)

Intro

G----------------------------------
D--2--3-2--------------------------
A---------5--3--2--0--2-0--2-0-2---
E----------------------------------

Versos
G--------------
D----2-2-------
A--3-----3----- 4 VECES
E--------------
   C

ENSEGUIDA ESTO!

G----2--2-----
D--3-------3--  4 VECES
A-------------
E-------------
   F
G-------------
D----2--2-----  4 VECES
A--3------3---
E-------------
   C

G----2--2-----
D--3------3---
A-------------  4 VECES
E-------------
   F

YO LLEGARÍA AL CIELO...

G-------2-2------
D--2---3----3----
A----------------
E----------------
   E   F
O ME CAERIA AL SUELO...
G----4--4-------2--2------2-2------------
D--5------5---3------3---3----3---5------
A----------------------------------------
E----------------------------------------
   G          F          F        G

CORO: UN CACHITO DE TU CORAZÓN...
G----------------------2-2-----4-4-----
D----2-2------2-2----3-----3--5----5---
A--3-----3--3-----3--------------------
E--------------------------------------
   C        C        F        G

DESPÚES DEL CORO ES LO MISMO QUE LOS VERSOS, ESCUCHENLA BIEN PARA QUE NOTEN DONDE METER
LA FIGURA DEL INTRO.

PEQUEÑITA DE MI CORAZÓN
G------------------------2--2-----4-4--
D----2--2------2--2----3------3--5---5-
A--3------3--3------3------------------
E--------------------------------------
   C         C         F         G
FIN
G-------
D-------
A--3----
E-------
   C
Suggest correction
Give kudos to tab author, rate the tab!
1 2 3 4 5
comments
print report bad tab
guest
You may want to rate the tab now too:
select rating
Wanna post a correction for this tab? Suggest correction