Oops, an error
Loading. Please wait.

Chaman Tab

version 1
version 1

Whole song

by Maná
305 views 9 this week
no commentswrite comment
1 2 3 4 5
3 more votes to show rating
add to favorites
×
Save as Personal and add changes to this tab that will be seen only by you. Learn more ›
×
You can save this tab as Personal to edit and correct it or add notes. All changes will be seen only by you. Learn more »
save as personal
new!
launch autoscroll
font size
0
reset
how to read this tab
guitar tuner
Autoscroll
slow
fast
+/-
esc
set tempo
stop
"chamán SIGUE ASI QUE COMO SIEMPRE completa" OK AHI LES VA:
==============================COMIENZO=========================
INTRO:
1.-----7--------3----------5---------2----------|
2.---7---7----3---3------5---5-----2---2--------|
3.-----------------4---------------------3------|
4.-9--------5----------7---------4--------------|
5.----------------------------------------------|
6.----------------------------------------------|
(DURANTE LOS VERSOS TAMBIEN SE TOCA EL INTRO)

 VERSOS:
Iba andando en el camino del desierto
de Zulu
hacia el norte del real.
Iba buscando entre cactús que iluminan
con su luz,
que iluminan la verdad.
Oh...no...oh yeah...oh...no, yo te tengo
que encontrar.

(AHORA ENTRA LA OTRA GUITARRA CON LOS ACORDES Y LOS DEMAS
INTRUMENTOS)
 (SE SIGUE TOCANDO EL INTRO)

Bm         G           A             F#m
Al fin llegamos a la selva en el poblado
       Bm
de Manaus
          G         A  F#m
en la amazona trópical
Bm       G              A           F#m
ahi arribamos a un santuario y nos recibio
       Bm
un chaman,
       G          A    F#m
nos tomo en su regazo.
[Bm D Em G D Em A D Em G F#m A]

 CORO:
Bm    D      Em    G  D     Em     A   D   Em      G   F#m  A
Jamas  dejes de amar cuenta el Chaman, el amor es todo-ooo
 Bm    D      Em    G  D     Em     A   D   Em      G   F#m  A
Jamas dejes de amar, dejes de soñar, el amor es todo-ooo

SOLO:
1.--7-10-7--7-------------------------------------------|
2.------------10-7--------------------------------------|
3.-----------------9-7-----7-7-8-9--7-9--4--7-9--4------|
4.---------------------9-7------------------------------|
5.------------------------------------------------------|
6.------------------------------------------------------|

1.----------------------10------------------------------|
2.----------------10----------10------------------------|
3.-7-9-9/11-11----11----11----9----------12-10----------|
4.------------------------------------11-------11-9-11--|
5.------------------------------------------------------|
6.------------------------------------------------------|

1.------------------------------------------5-5--5-5----|
2.--12-10---------12-10---------------------7-7--7-7----|
3.--------11-9-11-------11-9----------------7-7--7-7----|
4.---------------------------12-9-----------7-7--7-7----|
5.--------------------------------12-9--7---5-5--5-5----|
6.------------------------------------------5-5--5-5----|

1.--5-5---5-5---5/l7-10---------------------------------|
2.--7-7---9-7-------------------------------------------|
3.--7-7---7-7-------------------------------------------|
4.--7-7---7-7-------------------------------------------|
5.--5-5---5-5-------------------------------------------|
6.--5-5---5-5-------------------------------------------|

INTRO:
Iba entre flores y el deseo
cubierto de mariposas en la piel
el aura iluminaba el río.

Nuncas dejes de amar, nos decia el chaman
oh...no...oh...yeah...oh...no.

CORO:
Bm    D      Em    G  D     Em     A   D   Em      G   F#m  A
Jamas  dejes de amar cuenta el Chaman, el amor es todo-ooo
 Bm    D      Em    G  D     Em     A   D   Em      G   F#m  A
Jamas dejes de amar, dejes de soñar, el amor es todo-ooo

[D G D A C D]


                  1.-7-7-7----3-3-3-3/5--------------------|
                  2.-8-8-8----5-5-5-5/7--------------------|
                  3.---------------------------------------|
 Nunca dejes de amar, amar mas

                  1.-3---7---5-5---3---5-------------------|
                  2.-5---8---7-7---5---7-------------------|
                  3.---------------------------------------|
 De amar


                  1.-7-7-7---3-3-3-30---7-7-7---0-0-0/3---|
                  2.-8-8-8---5-5-5-50---8-8-8---2-2-2/5---|
                  3.---------------------------------------|
Nunca dejes de sonar, sonar mas


                  1.|-7-7-7--9--9--9---10-10--12--9---------|
                  2.|-8-8-8--10-10-10--12-12--14--10--------|
                  3.|---------------------------------------|
 De sonar      No no no no no no...
=================================FIN============================
MUY BIEN AMIGOS YA ESTA "corregida" OK practiquen" CHAÚ.

LEANDRO_TRANSCRIPCIONES@  21/01/06  18:03hs
 CHAU!!!!!!!!!!!!
Suggest correction
Give kudos to tab author, rate the tab!
1 2 3 4 5
comments
print report bad tab
guest
Wanna post a correction for this tab? Suggest correction